E-Chords
The Internet

Under Control(Tabs)

The Internet

roll up this ad to continue

Intro 

e|---------------------------------------------------------------------------| 
B|-3--5--7--5-----3--5--7--3-----3--5--7--5-----3--5--7--8-------------------| 
G|-4--6--8--5-----4--6--8--4-----4--6--8--5-----4--6--8--9-------------------| 
D|-2--4--6--4-----2--4--6--2-----2--4--6--4-----2--4--6--7-------------------| 
A|-3--5--7--5-----3--5--7--3-----3--5--7--5-----3--5--7--8-------------------| 
E|---------------------------------------------------------------------------| 
      

e|---------------------------------------------------------------------------| 
B|-3--5--7--5-----3--5--7--3-----7--5--7--5-----3--5--7--8-------------------| 
G|-4--6--8--5-----4--6--8--4-----7--5--8--5-----4--6--8--9-------------------| 
D|-2--4--6--4-----2--4--6--2-----6--4--6--4-----2--4--6--7-------------------| 
A|-3--5--7--5-----3--5--7--3-----7--5--7--5-----3--5--7--8-------------------| 
E|---------------------------------------------------------------------------| 
   ^^ 'I know you love it baby..'               ^^ 'when i'm a legend baby..' 
share this page

See Also: