E-Chords
The house of heroes

Make a face like you meant it/vampires(Tabs)

The house of heroes

m.f=moderately fast 
h=hammer on 
p=pull off 
tr~~=trill 
p.m.=palm mute 
/=slide 
 
listen to the song for the timeing :) 
 
intro: 
                       m.f 
e|---------------------999-777-999-777---------| 
B|-------------------------------------7h8p7h8-| 
G|---------------------------------------------| 
D|-9-9--9-9--9-9--9-9--------------------------| 
A|-9-9--9-9--9-9--9-9--------------------------| 
E|-7-7--7-7--7-7--7-7--------------------------| 
   tr~       tr~ 
 
                       m.f 
e|---------------------999-777-999-777----------| 
B|--------------------------------------7h8p7---| 
G|--------------------------------------------7-| 
D|-9-9--9-9--9-9--9-9---------------------------| 
A|-9-9--9-9--9-9--9-9---------------------------| 
E|-7-7--7-7--7-7--7-7---------------------------| 
   tr~       tr~ 
 
 
e|---------------------------------------------| 
B|---------------------------------------------| 
G|-----------------------2-2-2-2-2-2-2-2-------| 
D|-9-9--9-9--9-9--9-9----2-2-2-2-2-2-2-2-------| 
A|-9-9--9-9--9-9--9-9----2-2-2-2-2-2-2-2-------| 
E|-7-7--7-7--7-7--7-7--------------------------| 
   tr~       tr~         tr~~~~~~~~~~~~~ 
 
riff: now im not sure what to play right here,cause it's very hard to hear maybe you can figure it out 
 
e|---------------------------------------------| 
B|---------------------------------------------| 
G|---------------------------------------------| 
D|---------------------------------------------| 
A|---------------------------------------------| 
E|---------------------------------------------| 
 
then: 
 
e|----------------------------------------------| 
B|----------------------------------------------| 
G|-2-2-2-2-2-2-2-2-----the riff goes here-------| 
D|-2-2-2-2-2-2-2-2------------------------------|don't know how to plat it 
A|-2-2-2-2-2-2-2-2------------------------------| 
E|----------------------------------------------| 
   tr~~~~~~~~~~~~~ 
 
e|---------------------------------------------| 
B|---------------------------------------------| 
G|-4----0-4---riff/then play again-------------| 
D|-4----0-4------------------------------------| 
A|-4----0-4------------------------------------| 
E|-0----0-0------------------------------------| 
 
 
e|---------------------------------------------| 
B|---------------------------------------------| 
G|---------------------------------------------| 
D|-9-9-9-9-9-9-9-9-9-9-9-9-9-------------------| 
A|-9-9-9-9-9-9-9-9-9-9-9-9-9-------------------| 
E|-7-7-7-7-7-7-7-7-7-7-7-7-7-------------------| 
   p.m . . . . . . . . . . . 
 
e|---------------------------------------------| 
B|---------------------------------------------| 
G|---------------------------------------------| 
D|-4-5------5-6--------5-6--7-8-7--------------| 
A|-----6-7-------6-7---------------6-7-6-------| 
E|---------------------------------------------| 
 
verse: i also dont know 
 
e|---------------------------------------------| 
B|---------------------------------------------| 
G|---------------------------------------------| 
D|---------------------------------------------| 
A|---------------------------------------------| 
E|---------------------------------------------| 
 
at the end of the verse is: 
 
 
e|---------------------------------------------| 
B|---------------------------------------------| 
G|---------------------------------------------| 
D|-9-9-9-9-9-9------9-7-5----------------------| 
A|-9-9-9-9-9-9------9-7-5----------------------| 
E|-7-7-7-7-7-7------7-5-3----------------------| 
 
 
e|---------------------------------------------| 
B|-------------------12-10---10-10-------------| 
G|-2-2-2-2-2-2-2-2-----------------10-11-10----| 
D|-2-2-2-2-2-2-2-2-----------------------------| (2x) 
A|-2-2-2-2-2-2-2-2-----------------------------| 
E|---------------------------------------------| 
   tr~~~~~~~~~~~~~ 
 
e|---------------------------------------------| 
B|---------------12-10---10-10-----------------| 
G|-4----0-4--------------------10-11-10--------| (2x) 
D|-4----0-4------------------------------------| 
A|-4----0-4------------------------------------| 
E|-0----0-0------------------------------------| 
 
 
e|---------------------------------------------| 
B|---------------------------------------------| 
G|------2---------------2----------------------| 
D|-1-2-----1-2-3---1-2-------------------------| 
A|---------------------------------------------| 
E|-------------------------1-2-3---------------| 
 
 
e|---------------------------------------------| 
B|---------------------------------------------| 
G|--------------------------7-8-7--------------| 
D|-1-2-3---1-2-3---1-2-3-----------------------| 
A|---------------------------------6-7-6-------| 
E|---------------------------------------------| 
 
verse: i dont know 
 
e|---------------------------------------------| 
B|---------------------------------------------| 
G|---------------------------------------------| 
D|---------------------------------------------| 
A|---------------------------------------------| 
E|---------------------------------------------| 
 
 
e|---------------------------------------------| 
B|---------------------------------------------| 
G|---------------------------------------------| 
D|-9-9-9-9-9-9-----9-9--9-9--9-9--9-9----------| 
A|-9-9-9-9-9-9-----9-9--9-9--9-9--9-9----------| 
E|-7-7-7-7-7-7-----7-7--7-7--7-7--7-7----------| 
                   tr~       tr~ 
 
e|--------------------------------------------------| 
B|12-12-10-10-12-12-10-10---------------13-14-13-15-| 
G|-------------------------10-10-11-11--------------| 
D|--------------------------------------------------| 
A|--------------------------------------------------| 
E|--------------------------------------------------| 
 
e|----------------------------------------------| 
B|----------------------------------------------| 
G|----------------------------------------------| 
D|-9-9--9-9--9-9--9-9---------------------------| 
A|-9-9--9-9--9-9--9-9---------------------------| 
E|-7-7--7-7--7-7--7-7---------------------------| 
   tr~       tr~ 
 
e|--------------------------------------------------| 
B|12-12-10-10-12-12-10-10---------------13-14-13-15-| 
G|-------------------------10-10-11-11--------------| 
D|--------------------------------------------------| 
A|--------------------------------------------------| 
E|--------------------------------------------------| 
 
e|---------------------------------------------| 
B|---------------------------------------------| 
G|---------------------------------------------| 
D|-9-9--9-9--9-9--9-9---9-7-5---7/8/9----------| 
A|-9-9--9-9--9-9--9-9---9-7-5---7/8/9----------| 
E|-7-7--7-7--7-7--7-7---7-5-3---5/6/7----------| 
   tr~       tr~ 
 
e|---------------------------------------------| 
B|---------------------------------------------| 
G|---------------------------------------------| 
D|-9---9-9-9-9-9---7---7-7-7-7-7---5/7---------| 
A|-9---9-9-9-9-9---7---7-7-7-7-7---5/7---------| 
E|-7---7-7-7-7-7---5---5-5-5-5-5---3/5---------| 
       p.m . . .       p.m . . . 
 
verse: i dont know 
 
e|---------------------------------------------| 
B|---------------------------------------------| 
G|---------------------------------------------| 
D|---------------------------------------------| 
A|---------------------------------------------| 
E|---------------------------------------------| 
 
end on: 
 
e|---------------------------------------------| 
B|---------------------------------------------| 
G|---------------------------------------------| 
D|-9-9----9-7-5--------------------------------| 
A|-9-9----9-7-5--------------------------------| 
E|-7-7----7-5-3--------------------------------| 
 
 

roll up this ad to continue

share this page

See Also: