E-Chords
The Honeycombs

Have I The Right(Tabs)

The Honeycombs

roll up this ad to continue

Key: E
   Intro: 
e|-------------------------------------------------------------------| 
B|--10-10-10-9-10-9-10----10-------10-10-10-9-10-9-10----------------| 
G|------------------------11-----------------------------------------| 
D|------------------------12-----------------------------------------| 
A|-------------------------------------------------------------------| 
E|-------------------------------------------------------------------| 

   Verse: 
e|-------------------------------------------------------------------| 
B|10------------10-------------10-9-10---------------/15-------------| 
G|11-------------9------------------11---------------/16-------------| 
D|12------------11------------------12---------------/17-------------| 
A|-------------------------------------------------------------------| 
E|-------------------------------------------------------------------| 
     Have I the right to hold you.     You know I?ve always told you 

e|-------------------------------------------------------------------| 
B|10-------------12---------10---------------------------------------| 
G|11-------------11----------9---------------------------------------| 
D|12-------------12---------11---------------------------------------| 
A|-------------------------------------------------------------------| 
E|-------------------------------------------------------------------| 
    that we must never ever part. Oh...oh...oh...oh...oh 


e|-------------------------------------------------------------------| 
B|10------------10-------------10-9-10---------------/15-------------| 
G|11-------------9------------------11---------------/16-------------| 
D|12------------11------------------12---------------/17-------------| 
A|-------------------------------------------------------------------| 
E|-------------------------------------------------------------------| 
     Have I the right to kiss you.     You know I?ll always miss you. 

e|-------------------------------------------------------------------| 
B|10-------------12-------10---10-9-10-9-10--------------------------| 
G|11-------------11--------9---11---------9--------------------------| 
D|12-------------12-------11---12------------------------------------| 
A|-------------------------------------------------------------------| 
E|-------------------------------------------------------------------| 
     I loved you from the very start. 


   Chorus: 
e|-------------------------------------------------------------------| 
B|--10---10---10---10----10---10---10-----10-------------------------| 
G|--11---11---11---11-----9----9----9------9-------------------------| 
D|--12---12---12---12----11---11---11-----11-------------------------| 
A|-------------------------------------------------------------------| 
E|-------------------------------------------------------------------| 
    Come right back.   I just can?t bear it. 

e|-------------------------------------------------------------------| 
B|----10---10---10---10----12---12---10-----10-----------------------| 
G|----11---11---11---11----12---12----9------9-----------------------| 
D|----12---12---12---12----12---12---11-----11-----------------------| 
A|-------------------------------------------------------------------| 
E|-------------------------------------------------------------------| 
    I got this love and I long to share it. 

e|-------------------------------------------------------------------| 
B|----10---10---10---10----12---12---10---10-9-10-9-10---10-9-10-9-10| 
G|----11---11---11---11----12---12----9------------------------------| 
D|----12---12---12---12----12---12---11------------------------------| 
A|-------------------------------------------------------------------| 
E|-------------------------------------------------------------------| 
    Come right back.  I?ll show my love is strong.  Oh yeah. 


   Solo: 
e|--------------------------------------15-15-14-12--10-------10-----| 
B|--10-10-10-9-10-9-10------10-10/15-15-----------------10-10--------| 
G|-------------------------------------------------------------------| 
D|-------------------------------------------------------------------| 
A|-------------------------------------------------------------------| 
E|-------------------------------------------------------------------| 


e|------------------12-----12-12--10--9------------------------------| 
B|--12--12--14--15-----------------------12--------------------------| 
G|-------------------------------------------------------------------| 
D|-------------------------------------------------------------------| 
A|-------------------------------------------------------------------| 
E|-------------------------------------------------------------------| 


e|--------------------------------------15-15-14-12--10-------10-----| 
B|--10-10-10-9-10-9-10------10-10/15-15-----------------10-10--------| 
G|-------------------------------------------------------------------| 
D|-------------------------------------------------------------------| 
A|-------------------------------------------------------------------| 
E|-------------------------------------------------------------------| 


e|----------12b--12b--10---------------------------------------------| 
B|--12--15----------------10--9--10---10--10--10--9--10--------------| 
G|-------------------------------------------------------------------| 
D|-------------------------------------------------------------------| 
A|-------------------------------------------------------------------| 
E|-------------------------------------------------------------------| 

e|-------------------------------------------------------------------| 
B|-------------------------------------------------------------------| 
G|-------------------------------------------------------------------| 
D|-------------------------------------------------------------------| 
A|-------------------------------------------------------------------| 
E|-------------------------------------------------------------------|  
share this page

See Also: