E-Chords
The Griswolds

The Courtship Of Summer Preasley(Tabs)

The Griswolds

Interlude (0:38) 

E|-6--6--6--6--3--3--3--3--10--10--11--11--6--6--6--6--| 
B|-6--6--6--6--4--4--4--4--11--11--11--11--6--6--6--6--| 
G|-7--7--7--7--5--5--5--5--12--12--12--12--7--7--7--7--|   
D|-----------------------------------------------------| 
A|-----------------------------------------------------| 
E|-----------------------------------------------------|(x2) 


Chorus (1:21) 

E|-6--6--6--6--3--3--3--3--10--10--11--11--6--6--6--6--3--3--3--3--10--10--11--11--6--6--6--6--| 
B|-6--6--6--6--4--4--4--4--11--11--11--11--6--6--6--6--4--4--4--4--11--11--11--11--6--6--6--6--| 
G|-7--7--7--7--5--5--5--5--12--12--12--12--7--7--7--7--5--5--5--5--12--12--12--12--7--7--7--7--| 
D|---------------------------------------------------------------------------------------------| 
A|---------------------------------------------------------------------------------------------| 
E|---------------------------------------------------------------------------------------------|(x2) 


Bridge (1:42) 

E|-13-13-15-13-10-11-11-13-11-8-6-6-8-6-3-1-1-1-1-| 
B|-13-13-13-13-11-11-11-11-11-8-6-6-6-6-3-1-1-1-1-| 
G|------------------------------------------------| 
D|------------------------------------------------| 
A|------------------------------------------------| 
E|------------------------------------------------|(x3) 


Chorus (2:18) 

E|-6--6--6--6--3--3--3--3--10--10--11--11--6--6--6--6--3--3--3--3--10--10--11--11--6--6--6--6--| 
B|-6--6--6--6--4--4--4--4--11--11--11--11--6--6--6--6--4--4--4--4--11--11--11--11--6--6--6--6--| 
G|-7--7--7--7--5--5--5--5--12--12--12--12--7--7--7--7--5--5--5--5--12--12--12--12--7--7--7--7--| 
D|---------------------------------------------------------------------------------------------| 
A|---------------------------------------------------------------------------------------------| 
E|---------------------------------------------------------------------------------------------|(x2) 

roll up this ad to continue

share this page

See Also: