E-Chords
The Ghost

Ghost Train(Tabs)

The Ghost

roll up this ad to continue

Key: Cm
INTRO 
****** 
  GUITAR 1 
  Cm                      Bb 
e|-----------------------|-----------------------| 
B|-----------------------|-----------------------| 
G|----------0------------|-----------------------| 
D|-------1--------1------|----------0------------|  Play these Guitars   
A|----3--------3---------|-------1--------1------| 
E|-----------------------|----3--------3---------|     4 times until the Solo section  
 |                                               | 
 |GUITAR 2 - Right hand mute                     |         Comes in, then Continue  
e|-----------------------|-----------------------| 
B|Cm---------------------|Bb---------------------|     Playing this through out 
G|-----------------------|-----------------------| 
D|----------5----------5-|-----------------------|  The Song. And with the chords 
A|-3--3-3-6---3--3-3-6---|----------5----------5-| 
E|-----------------------|-3--3-3-6---3--3-3-6---| 


---------------------------- 
00:15          Chords used in the solo section are these 
SOLO SECTION - Cm Bb Gm Fm Ab Eb 
*************    
                                                               00:30 
e|---------------|------------|-----|------------|------------|------------|------------|---------| 
B|---------------|------------|-----|------------|------------|----------4-|-3----------|---------| 
G|---------------|------------|-----|------------|------------|-------5----|----5--3----|-3-----5-| 
D|---------------|----------5-|-----|------------|----------5-|-3--6-------|----------6-|----6----| 
A|-3-----3--6--5-|----5--8----|-----|----3--6--5-|----5--8----|------------|------------|---------| 
E|----3----------|-6----------|-----|-3----------|-6----------|------------|------------|---------| 

00:37 
e|------------|------------|-Right--------|-R------------|-R------------|-------------|--------| 
B|------------|------------|--Hand--------|--H-----------|--H-----------|--s----------|--------| 
G|------------|------------|---Mute-------|---M----------|---M----------|-4\5--5-5--3-|--s-----| 
D|------------|----------5-|--------------|--------------|-6-6-6-6--6-6-|-------------|-5\-3-5-| 
A|----3--6--5-|----5--8----|-3-3-3-3--3-3-|-6-6-6-6--6-6-|--------------|-------------|--------| 
E|-3----------|-6----------|--------------|--------------|--------------|-------------|--------| 

00:51 
e|-Right--------|-R------------|-R------------|----------------------3-| 
B|--Hand--------|--H-----------|--H-----------|--s-------------3-6-3---| 
G|---Mute-------|---M----------|---M----------|-4\5--5-5-4---4---------| 
D|--------------|--------------|-6-6-6-6--6-6-|------------5-----------| 
A|-3-3-3-3--3-3-|-6-6-6-6--6-6-|--------------|------------------------| 
E|--------------|--------------|--------------|------------------------| 


00:59 
e|------------|------------|------------|------------|-6-------| 
B|------------|-------6--8-|------------|-------6--8-|----8--8-| 
G|----5--8--7-|-7--8-------|----5--8--7-|-7--8-------|---------| 
D|-5----------|------------|-5----------|------------|---------| 
A|------------|------------|------------|------------|---------| 
E|------------|------------|------------|------------|---------| 

01:13                                      
e|--------8--11-|-10--8--------|--------8-|------------|------------| 
B|-----9--------|--------11--9-|-11--9--8-|------------|-------6--8-| 
G|-10-----------|--------------|----------|----5--8--7-|-7--8-------| 
D|--------------|--------------|----------|-5----------|------------| 
A|--------------|--------------|----------|------------|------------| 
E|--------------|--------------|----------|------------|------------| 

01:27                                            s   
e|-R-H----------|-R-H----------|-R-H-M--------|-6\8-8-8-6-|-------| 
B|--M-----------|--M-----------|-9-9-9-9--9-9-|-----------|-8-6-8-| 
G|-5-5-5-5--5-5-|-8-8-8-8--8-8-|--------------|-----------|-------| 
D|--------------|--------------|--------------|-----------|-------| 
A|--------------|--------------|--------------|-----------|-------| 
E|--------------|--------------|--------------|-----------|-------| 

                                                 s 
e|-R-H----------|-R-H----------|-R-H-M--------|-8\-| 
B|--M-----------|--M-----------|-9-9-9-9--9-9-|----| 
G|-5-5-5-5--5-5-|-8-8-8-8--8-8-|--------------|----| 
D|--------------|--------------|--------------|----| 
A|--------------|--------------|--------------|----| 
E|--------------|--------------|--------------|----| 

                                                                 s 
e|-15-15-16-16-15-15-16-16-15-15-16-16-15-15-16-16-15-15-15-15-15\-|-------| 
B|-----------------------------------------------------------------|-8-~~~~| 
G|-----------------------------------------------------------------|-------| 
D|-----------------------------------------------------------------|-------| 
A|-----------------------------------------------------------------|-------| 
E|-----------------------------------------------------------------|-------| 


01:42 
e|------------|------------|------------|------------|----8--11--10-|---------11-----|-----11--13--15-| 
B|------------|------------|------------|------------|-8------------|-----13------15-|-15-------------| 
G|------------|------------|------------|------------|--------------|-12-------------|----------------| 
D|------------|----------5-|------------|----------5-|--------------|----------------|----------------| 
A|----3--6--5-|----5--8----|----3--6--5-|----5--8----|--------------|----------------|----------------| 
E|-3----------|-6----------|-3----------|-6----------|--------------|----------------|----------------| 

02:04 
e|------------|------------|--------|----------|----------|----------|--------|----------|----------| 
B|------------|------------|--------|----------|----------|----------|--------|----------|----------| 
G|------------|------------|------s-|--------s-|--------s-|--------s-|------s-|--------s-|--------s-| 
D|------------|------------|-5---5\-|---3---3\-|---5---5\-|---3---3\-|-5---5\-|---3---3\-|---5---5\-| 
A|----3--6--5-|----5--8--3-|---3----|-1---1----|-3---3----|-1---1----|---3----|-1---1----|-3---3----| 
E|-3----------|-6----------|--------|----------|----------|----------|--------|----------|----------| 


/   = Slide 
~   = Vibrato 


ENJOY......... 
share this page

See Also: