E-Chords
The Gathering

Red Is A Slow Colour(Tabs)

The Gathering

intro 
e|--x---x--3--(x2)--0-0-3---(x2)---------------------------------------------| 
B|--0---0--0--------1-1-1----------------------------------------------------| 
G|--0---0--0--------0-0-0----------------------------------------------------| 
D|--2---2--2--------2-2-2----------------------------------------------------| 
A|--3---3--3--------3-3-3----------------------------------------------------| 
E|--x---x--x-----------------------------------------------------------------| 

?the picture on the wall?? 

e|--7---7---10--9---7---9----------------------------------------------------| 
B|--7---7---7---7---7---7----------------------------------------------------| 
G|--7---7---7---7---7---7----------------------------------------------------| 
D|--9---7---7---7---7---7----------------------------------------------------| 
A|--9---9---7---7---7---7----------------------------------------------------| 
E|---------------------------------------------------------------------------| 

Repeat intro riff and above riff, then? 

e|---3---5---6---5-----------------------------------------------------------| 
B|---3---3---3---3-----------------------------------------------------------| 
G|---3---3---3---3-----------------------------------------------------------| 
D|---5---5---5---5-----------------------------------------------------------| 
A|---------------------------------------------------------------------------| 
E|---------------------------------------------------------------------------| 

e|-----------5-7------------------------5-6----------------------------------| 
B|--------5------5----------------5-8-------8----8---------------------------| 
G|-----5------------8----------5---------------7-----------------------------| 
D|---7-----------------7-5---5-----------------------7-----------------------| 
A|---------------------------------------------------------------------------| 
E|---------------------------------------------------------------------------| 
This is played a few times with some slight variations, then intro riff again, then? 

e|---------------------------------------------------------------------------| 
B|---------------------------------------------------------------------------| 
G|---------------------------------------------------------------------------| 
D|---------------------------------------------------------------------------| 
A|---------------------------------------------------------------------------| 
E|-7-7-7-7-10-10-10-9-7-9-----3-3-3-3-3-5-5-5-5-5-6-6-6-6-6------------------| 

e|---------------------------------------------------------------------------| 
B|---------------------------------------------------------------------------| 
G|---------------------------------------------------------------------------| 
D|---------------------------------------------------------------------------| 
A|---------------------------------------------------------------------------| 
E|---5-5-5-5-8-8-8-8-7-5-7---------------------------------------------------| 

e|---------------------------------------------------------------------------| 
B|---------------------------------------------------------------------------| 
G|---16-16------------19-19-18-16-18-----------------------------------------| 
D|----------16-16-12---------------------------------------------------------| 
A|---------------------------------------------------------------------------| 
E|---------------------------------------------------------------------------| 

roll up this ad to continue

share this page

See Also: