E-Chords
The Gathering

Leaves(Tabs)

The Gathering

intro (clean) listen to it to get the correct pattern 
e|--------3---------3-3----------------------------------------------------| 
B|--------3---------3---3--------------------------------------------------| 
G|------------------------5------------------------------------------------| 
D|----5-5-------5-5--------------------------------------------------------| 
A|----3-3-------3-3--------------------------------------------------------| 
E|-------------------------------------------------------------------------| 

Riff One 
e|-------------------------------------------------------------------------| 
B|-------------------------------------------------------------------------| 
G|--------5-----5----------------------------------------------------------| 
D|----6-6-5-3-3-5-------X8-------------------------------------------------| 
A|----6-6-3-3-3-3----------------------------------------------------------| 
E|----4-4---1-1------------------------------------------------------------| 


Riff Two 
e|--------------------------repeat--------------------------repeat---------| 
B|-------------------------------------------------------------------------| 
G|-------------------------------------------------------------------------| 
D|--------5------X3------5~---------------3-----X3-----3~------------------| 
A|---5-5--5-5------------5~-----------3-3-3-3----------3~------------------| 
E|---3-3--3-3------------3~-----------1-1-1-1----------1~------------------| 
     X X    X                         x x   x 

Repeat Riff One 

Then the first half of Riff Two before doing the solo thing. 


Solo 
e|---7~--7-7-8~--8-8-10---7~-7-7--8~-8-8-10-8~\--|-------------------------| 
B|-----------------------------------------------|-------------------------| 
G|-----------------------------------------------|-9---9-9-9--7-4-5-7-4----| 
D|-----------------------------------------------|-------------------------| 
A|-----------------------------------------------|-------------------------| 
E|-----------------------------------------------|-------------------------| 


      \/This part is hard to hear 
e|---------------------|---------------------------------------------------| 
B|---------------------|---------------------------------------------------| 
G|------2--------------|----9--9-9-9-9--9--9-9-9-9--7-5-4-5--7-4-5---------| 
D|-2-2-2-2-0-2--X4-----|---------------------------------------------X2----| 
A|---------------------|---------------------------------------------------| 
E|---------------------|---------------------------------------------------| 

e|-------------------------15-13-12h13p12----------------------------------| 
B|-------13---13--------13-------------------------------------------------| 
G|-5~/12~--12~--12\5~/12---------------------------------------------------| 
D|-------------------------------------------------------------------------| 
A|-------------------------------------------------------------------------| 
E|-------------------------------------------------------------------------| 

Then Repeat the first section of the solo. 

Riff One 
Riff Two 
End with the intro 

roll up this ad to continue

share this page

See Also: