E-Chords
The Gathering

Eleanor(Tabs)

The Gathering

Key: B
Riff A (0:16)                           Riff B (0:32) 
      
|--------------------------------------|--------------------------------------| 
|--------------------------------------|--------------------------------------| 
|--4-----------------4-----------------|--------------------------------------| 
|--4-----------------4---4-------------|---2---------------4------------------| 
|--2-----------------2---4-------------|---2---------------4------------------| 
|------------------------2-------0-2-0-|---0---------------2------------0-2-0-| 
 last 3 notes of A and B are only sometimes played 
                              
          
short bridge.  These chords are muted both with the palm and fret hand. 
                                          
|---------------| 
|---------------| 
|---------------| 
|-2-2-2--2-2-2--| 
|-2-2-2--2-2-2--| 
|-0-0-0--0-0-0--| 

 Riff C (1:02) 
     
|----------------------------------|------------------------------------| 
|----------------------------------|------------------------------------| 
|------------------6--8--6---9--9--|-------------------6--8--6----------| 
|---6--------------6--8--6---9--9--|---6---------------6--8--6---2---2--| 
|---6--------------4--6--4---7--7--|---6---------------4--6--4---2---2--| 
|---4------------------------------|---4-------------------------0---0--| 
strum the first chord in any rhythm you'd like, unmuted.       
                                                                        
 interlude (2:36)                        Riff D (2:53) 
bridge 2 
|------------------------------------|-------------------------------|------| 
|------------------------------------|-------------------------------|------| 
|------------------------------------|---------------------------9---|------| 
|--------------------------------9---|---------------------------9---|--4---| 
|-2~-2-3-0-2~-2-3-0---------2~---7---|---------------------------7---|--2---| 
|--------------------3~---3----------|--4----------------------------|------| 
                                        32x  123412341234 etc 
         

 Riff E 
                         
|----------------------------------------------------| 
|-----10---------10------------10---------10---------| 
|-7------10-9-------9-10-9--------10-9-------9-10-9--| 
|-7------------0-----------0-0---------0-------------| 
|-5--------------------------------------------------| 
|----------------------------------------------------| 
  twice 
              

|--------------------------------------------------| 
|-----7--------7------------7--------7-------------| 
|-4-----7-6------6-7-6--------7-6------6-7-6-------| 
|-4------------------------------------------------| 
|-2------------------------------------------------| 
|-----------7----------7-7--------7----------------| 
  twice 

 Riff F 
         
|---------------------------------|-------------------------------| 
|---------------------------------|-------------------------------| 
|---------------------------------|-------------------------------| 
|---------5----5------5-----------|---------3-----3------3--------| 
|-----------------------5---5-----|------------------------3---3--| 
|-3---3-3----3----3-------3-------|-1---1-1-----1----1-------1----| 
 twice                              twice                           

Riff G 
|---------------------------|---------------------------| 
|---------------------------|---------------------------| 
|---------------------------|---------------------------| 
|--5------5----5----5-------|--3------3----3---3--------| 
|--5------5----5------5---5-|--3------3----3-----3--3---| 
|--3--3-3-3--3-3--------3---|--1--1-1-1--1-1-------1----| 
   twice                       twice,  Second time skip end arpeggio 

roll up this ad to continue

share this page

See Also: