E-Chords
The Floor

Damned Little Fool(Tabs)

The Floor

0:09 

G|----------------------------------------------------------------| 
D|5-------5-------5-------5-------4-------4-------4-------4-------| 
A|----------------------------------------------------------------| 
E|----------------------------------------------------------------| 

G|----------------------------------------------------------------| 
D|3-------3-------3-------3-------2-------2-------2-------2-------| 
A|----------------------------------------------------------------| 
E|----------------------------------------------------------------| 

G|----------------------------------------------------------------| 
D|----------------------------------------------------------------| 
A|5-------5-------5-------5-------4-------4-------3-------3-------| 
E|----------------------------------------------------------------| 

G|----------------------------------------------------------------| 
D|--------------------------------5-------5-----------------------| 
A|2-------3-------5-------5---------------------------------------| 
E|----------------------------------------------------------------| 

:23 

G|----------------------------------------------------------------| 
D|5-------5-------5-------5-------4-------4-------4-------4-------| 
A|----------------------------------------------------------------| 
E|----------------------------------------------------------------| 

G|----------------------------------------------------------------| 
D|3-------3-------3-------3-------2-------2-------2-------2-------| 
A|----------------------------------------------------------------| 
E|----------------------------------------------------------------| 

G|----------------------------------------------------------------| 
D|----------------------------------------------------------------| 
A|5-------5-------5-------5-------4-------4-------3-------3-------| 
E|----------------------------------------------------------------| 

G|--------------------------------------------------------4-------| 
D|--------------------------------5-------5-------7---------------| 
A|2-------3-------5-------5---------------------------------------| 
E|----------------------------------------------------------------| 

0:38 

G|----------------------------------------------------------------| 
D|------------------------------------------------2-------2-------| 
A|3-------3-------3-------3-------2-------2-----------------------| 
E|----------------------------------------------------------------| 

G|----------------------------------------------------------------| 
D|----------------------------------------------------------------| 
A|0-------0---------------------------------------0-------2-------| 
E|----------------2-------2-------3-------3-----------------------| 

G|----------------------------------------------------------------| 
D|------------------------------------------------2---------------| 
A|3-------3-------3-------3-------2-------2---------------5-------| 
E|----------------------------------------------------------------| 

G|5-------4-------------------------------------------------------| 
D|----------------7-------5---------------------------------------| 
A|--------------------------------5-----------5-------------------| 
E|----------------------------------------------------------------| 

0:52 

G|----------------------------------------------------------------| 
D|5-------5-------5-------5-------4-------4-------4-------4-------| 
A|----------------------------------------------------------------| 
E|----------------------------------------------------------------| 

G|----------------------------------------------------------------| 
D|3-------3-------3-------3-------2-------2-------2-------2-------| 
A|----------------------------------------------------------------| 
E|----------------------------------------------------------------| 

G|----------------------------------------------------------------| 
D|----------------------------------------------------------------| 
A|5-------5-------5-------5-------4-------4-------3-------3-------| 
E|----------------------------------------------------------------| 

G|--------------------------------------------------------4-------| 
D|--------------------------------5-------5-------7---------------| 
A|2-------3-------5-------5---------------------------------------| 
E|----------------------------------------------------------------| 

1:06 

G|----------------------------------------------------------------| 
D|------------------------------------------------2-------2-------| 
A|3-------3-------3-------3-------2-------2-----------------------| 
E|----------------------------------------------------------------| 

G|----------------------------------------------------------------| 
D|----------------------------------------------------------------| 
A|0-------0---------------------------------------0-------2-------| 
E|----------------2-------2-------3-------3-----------------------| 

G|----------------------------------------------------------------| 
D|------------------------------------------------2---------------| 
A|3-------3-------3-------3-------2-------2---------------5-------| 
E|----------------------------------------------------------------| 

G|5-------4-------------------------------------------------------| 
D|----------------7-------5---------------------------------------| 
A|--------------------------------5-----------5-------------------| 
E|----------------------------------------------------------------| 

1:21 

G|----------------------------------------------------------------| 
D|5-------5-------5-------5-------4-------4-------4-------4-------| 
A|----------------------------------------------------------------| 
E|----------------------------------------------------------------| 

G|----------------------------------------------------------------| 
D|3-------3-------3-------3-------2-------2-------2-------2-------| 
A|----------------------------------------------------------------| 
E|----------------------------------------------------------------| 

G|----------------------------------------------------------------| 
D|----------------------------------------------------------------| 
A|5-------5-------5-------5-------4-------4-------3-------3-------| 
E|----------------------------------------------------------------| 

G|--------------------------------------------------------4-------| 
D|--------------------------------5-------5-------7---------------| 
A|2-------3-------5-------5---------------------------------------| 
E|----------------------------------------------------------------| 

1:35 

G|----------------------------------------------------------------| 
D|------------------------------------------------2-------2-------| 
A|3-------3-------3-------3-------2-------2-----------------------| 
E|----------------------------------------------------------------| 

G|----------------------------------------------------------------| 
D|----------------------------------------------------------------| 
A|0-------0---------------------------------------0-------2-------| 
E|----------------2-------2-------3-------3-----------------------| 

G|----------------------------------------------------------------| 
D|------------------------------------------------2---------------| 
A|3-------3-------3-------3-------2-------2---------------5-------| 
E|----------------------------------------------------------------| 

G|5-------4-------------------------------------------------------| 
D|----------------7-------5-------4-------3-----------------------| 
A|----------------------------------------------------------------| 
E|----------------------------------------------------------------| 

1:50 Until fadeout. 

G|----------------------------------------------------------------| 
D|8-------8-------8-------8-------7-------7-------7-------7-------| 
A|----------------------------------------------------------------| 
E|----------------------------------------------------------------| 

G|----------------------------------------------------------------| 
D|6-------6--------6------6-------5-------5-------5-------5-------| 
A|----------------------------------------------------------------| 
E|----------------------------------------------------------------| 

G|----------------------------------------------------------------| 
D|----------------------------------------------------------------| 
A|8-------8-------8-------8-------7-------7-------6-------6-------| 
E|----------------------------------------------------------------| 

G|----------------------------------------------------------------| 
D|--------------------------------8-------------------------------| 
A|5-------6-------8-------8---------------------------------------| 
E|----------------------------------------------------------------| 

roll up this ad to continue

share this page

See Also: