E-Chords
The Five Stairsteps

O-o-h Child(Tabs)

The Five Stairsteps

roll up this ad to continue

For the 'o-o-h child...' part play the chords: 

e|---------------- 
B|-8-----------5-- 
G|-9---7---5---5-- 
D|-9---7---5---3-- 
A|-------------5-- 
E|-8---7---5------ 

Then for the 'some day...' part: 

e|------------------3-- 
B|--8---6---4---8---3-- 
G|--7---5---3---8---3-- 
D|--8-----------6---3-- 
A|--6---5---3---8------ 
E|--------------------- 


I hope people find this useful, personally i think its a pretty sound version. You can mix it up with  
finger picking as you like, but these are the basic shapes. 
share this page

See Also: