E-Chords
The Eeries

Love You To Pieces(Tabs)

The Eeries

Key: B
Tuning: Standard 

Intro                                   
e|--------------------|           
B|--------------------|          
G|--------------------|       
D|--------------------|       
A|-2-3-4-4-4--4-4-----|           
E|-0-1-2-2-2--2-2-----|           
PalmMutePalmMutePalmMute              

Pre-Chorus  
e|-----------------x-xx--x-xx------| 
B|-----------------x-xx--x-xx------| 
G|-----------------x-xx--x-xx------| 
D|-2-4~----2-4~----x-xx--x-xx------| 
A|-2-4~----2-4~----x-xx--x-xx------| 
E|-0-2~----0-2~----x-xx--x-xx------| 

Chorus: 
e|--------------------------------------------------------------------------------------------------------| 
B|--------------------------------------------------------------------------------------------------------| 
G|-2-2-2-22-4-4-4-44---------------------2-2-2-22-4-4-4-44-------------------------11~~~------------------| 
D|-2-2-2-22-4-4-4-44-2-2-2-22-4--44-4-44-2-2-2-22-4-4-4-44-2-2-2-22-4--44-4-44----------------------------| 
A|-0-0-0-00-2-2-2-22-2-2-2-22-4--44-4-44-0-0-0-00-2-2-2-22-2-2-2-22-4--44-4-44----------------------------| 
E|-------------------0-0-0-00-2--22-2-22-------------------0-0-0-00-2--22-2-22----------------------------| 

Second Chorus Ending: (with intro played behind it) Repeat as needed 
e|------------------------------| 
B|------------------------------| 
G|-x9/11---x9/11----------------| 
D|------------------------------| 
A|------------------------------| 
E|------------------------------| 

Bridge: Clean w/ slide  
Use e B and G strings slide down from past the fret board until around 2:50/2:51 then slide down with e  
& B strings and slide up slowly returning to past the fret board 


End the song on F# and allow feedback  


************************************ 

| /   slide up 
| \   slide down 
| h   hammer-on 
| p   pull-off 
| ~   vibrato 
| +   harmonic 
| x   Mute note 
| b   Bend 
| pb  Pre-bend 
| br  Bend release 
| pbr Pre-bend release 
| brb Bend release bend 

************************************ 

roll up this ad to continue

share this page

See Also: