E-Chords
The Dubliners

Rare Old Mountain Dew(Tabs)

The Dubliners

roll up this ad to continue

 ---------------------------------------------| 
 ---------------------------------------------| 
 ---------------------------------------------| 
 2--2--4--2---------------------------------2-| 
 -----------4--0--0--2--0-------0--4--2--0----| 
 --------------------------2--0---------------| 


 ----------------------------------------------| 
 ----------------------------------------------| 
 ----------------------------------------------| 
 2--4--2--2------------------------------------| 
 ------------4--0--0--2--0----0--4--4--2--2--0-| 
 ---------------------------2------------------| 


 --------------------------------------| 
 --------------------------------------| 
 --------------------------------------| 
 2--4--2----2--4--2---4--2-------------| 
 --------0----------0-------4--2--0--2-| 
 --------------------------------------| 


 -----------------------------------------------| 
 -----------------------------------------------| 
 -----------------------------------------------| 
 2--3--3--2-------------------------------------| 
 -----------4--0--0--2--0---0--0--4--4--2--2--0-| 
 -------------------------2---------------------| 

chorus 
 ---------------------------------------------| 
 ---------------------------------------------| 
 ---------------------------------------------| 
 2--2--4--2---------------------------------2-| 
 -----------4--0--0--2--0-------0--4--2--0----| 
 --------------------------2--0---------------| 

chorus continued 
 ---------------------------------------------------| 
 ---------------------------------------------------| 
 ---------------------------------------------------| 
 2--2--4--2-----------------------------------------| 
 -----------4--0--0--2--0-------4--4--4--4--2--2--0-| 
 -------------------------2--0----------------------| 


 the tabs are repeated a few times in that order, and thats all there is to this song  
really. My tab for the song makes it easier for you to sing with your playing. anyways, if  
you have a talkbox, this works good on that too. thank you, enjoy. 
share this page

See Also: