E-Chords
The Donnas

Take It Off ( ver.3)(Tabs)

The Donnas

roll up this ad to continue

tandard tuning 
 
-------------- 
|Intro riff: | 
-------------- 
 
    1     2     3     4     1     2     3     4      
e|:------------------------------------------------- 
B|:----------------------3--------------3-----2----- 
G|:----------------------2-----2-----2--2-----2----- 
D|:----4--6--6--4--------0-----2-----2--2-----2----- 
A|:----2--2--2--2--------------0-----0--0-----0----- 
E|:------------------------------------------------- 
 
   1     2     3     4     1     2     3     4      
e|----------------------3-----3--3----------------:| 
B|----------------------3-----3--3--2-----3--2----:| 
G|----------------------0-----0--0--2-----2--2----:| 
D|----4--6--6--4--------0-----0--0--2-----2--2----:| 
A|----2--2--2--2--------x-----x--x--0-----0--0----:| 
E|----------------------3-----3--3----------------:|    x4 
 
 
--------------- 
| Verse riff: | 
--------------- 
 
    1     2     3     4     1     2     3     4      
e|:------------------------------------------------- 
B|:----------------------3--------------3-----2----- 
G|:----------------------2-----2-----2--2-----2----- 
D|:----4-----4--4--------0-----2-----2--2-----2----- 
A|:----2-----2--2--------------0-----0--0-----0----- 
E|:------------------------------------------------- 
	     pm 
 
   1     2     3     4     1     2     3     4      
e|----------------------3-----3--3----------------:| 
B|----------------------3-----3--3--2-----3--2----:| 
G|----------------------0-----0--0--2-----2--2----:| 
D|----4-----4--4--------0-----0--0--2-----2--2----:| 
A|----2-----2--2--------x-----x--x--0-----0--0----:| 
E|----------------------3-----3--3----------------:|    x2 
	    pm 
 
--------------- 
| Pre-Chorus: | 
--------------- 
 
   1     2     3     4     1     2     3     4      
e|------------------------------------------------- 
B|------------------------------------------------- 
G|------------------------------------------------- 
D|-4--4--4--4--4--4--4--4--4--4--4--4--4--4--4--4-- 
A|-4--4--4--4--4--4--4--4--4--4--4--4--4--4--4--4-- 
E|-2--2--2--2--2--2--2--2--2--2--2--2--2--2--2--2-- 
 
----------- 
| Chorus: | 
----------- 
 
    1     2     3     4     1     2     3     4      
e|:------------------------------------------------- 
B|:----------------------3-----2-----------2--2----- 
G|:-4-----4--------4-----2-----2-----------2--2----- 
D|:-4-----4--------4-----0-----2-----------2--2----- 
A|:-2-----2--------2-----------0-----------0--0----- 
E|:------------------------------------------------- 
 
   1     2     3     4     1     2     3     4      
e|-0-----0-----0--0-----3-----3--3----------------:| 
B|-0-----0-----0--0-----3-----3--3--2-----3--2----:| 
G|-x-----x-----x--x-----0-----0--0--2-----2--2----:| 
D|-2-----2-----2--2-----0-----0--0--2-----2--2----:| 
A|-2-----2-----2--2-----x-----x--x--0-----0--0----:| 
E|-0-----0-----0--0-----3-----3--3----------------:|    x2 
 
 
Intro riff x1 
 
Verse riff x1 
 
Pre-Chorus 
 
Chorus 
 
---------------- 
| Solo: (1.25) | 
---------------- 
 
Guitar 1 (lead) 
   4     1     2     3     4     1     2     3     4      
e|------------------------------------------------------- 
B|----2--------2----------------------------------------- 
G|----4^-------4^----4^-.--2-----2----------------------- 
D|----------------------------4-----4--2-----2----------- 
A|----------------------------------------4-----4--2--2/- 
E|------------------------------------------------------- 
      full     full  full 
 
Guitar 2 (rhythm) 
   1     2     3     4     1     2     3     4      
e|------------------------------------------------- 
B|------------------------------------------------- 
G|------------------------------------------------- 
D|-4--4--4--4--4--4--4--4--4--4--4--4--4--4--4--4-- 
A|-4--4--4--4--4--4--4--4--4--4--4--4--4--4--4--4-- 
E|-2--2--2--2--2--2--2--2--2--2--2--2--2--2--2--2-- 
 
 
Guitar 1 
   1     2     3     4     1     2     3     4      
e|------------------------------------------------- 
B|-------------------------------------------7^---- 
G|-------------------------------------------7^---- 
D|-9-----9-----9--7--9--9--------9-----9--7-------- 
A|------------------------------------------------- 
E|------------------------------------------------- 
					     half 
Guitar 2 
   1     2     3     4     1     2     3     4      
e|------------------------------------------------- 
B|----------------------3-----3-----3-----3-------- 
G|-4-----4-----4--4--4--2-----2-----2-----2-------- 
D|-4-----4-----4--4--4--0-----0-----0-----0-------- 
A|-2-----2-----2--2--2----------------------------- 
E|------------------------------------------------- 
 
 
Guitar 1 
   1     2     3     4     1     2     3     4      
e|------------------------------------------------- 
B|-------------7-----7--9^-------7^---------------- 
G|-------------7-----7--9^-------7^---------------- 
D|-9-----9--------9--------------------9--7--9----- 
A|------------------------------------------------- 
E|------------------------------------------------- 
			half     half 
Guitar 2 
   1     2     3     4     1     2     3     4      
e|------------------------------------------------- 
B|----------------------3-----3-------------------- 
G|-4-----4-----4--4--4--2-----2-----2-----2--2----- 
D|-4-----4-----4--4--4--0-----0-----2-----2--2----- 
A|-2-----2-----2--2--2--------------0-----0--0----- 
E|------------------------------------------------- 
 
 
Guitar 1 
   1     2     3     4     1     2     3     4      
e|-------------------------------5------------------ 
B|----------------------2--------2-----2----------- 
G|-------------2-----2--4^------(6)----4^-4--4--2-- 
D|-7\----2--4-----4-------------------------4------ 
A|------------------------------------------------- 
E|------------------------------------------------- 
			full     full  full 
Guitar 2 
   1     2     3     4     1     2     3     4      
e|------------------------------------------------- 
B|----------------------3-----3-----3-----3-------- 
G|-4-----4-----4--4--4--2-----2-----2-----2-------- 
D|-4-----4-----4--4--4--0-----0-----0-----0-------- 
A|-2-----2-----2--2--2----------------------------- 
E|------------------------------------------------- 
 
 
Guitar 1 
   1       2       3       4       1       2       3       4        
e|------------------------------------------------------------------ 
B|------------------------------------------------------------------ 
G|---------------------------------------------------------2-------- 
D|-4-2-0-4-2-0-4-2-4-2-0-4-2-0-4-2-4-2-0-4-2-0-4-2-4-2-0-------4---- 
A|------------------------------------------------------------------ 
E|------------------------------------------------------------------ 
 
Guitar 2 
   1     2     3     4     1     2     3     4      
e|------------------------------------------------- 
B|----------------------3-----3-------------------- 
G|-4-----4-----4--4--4--2-----2-----2-----2--2----- 
D|-4-----4-----4--4--4--0-----0-----2-----2--2----- 
A|-2-----2-----2--2--2--------------0-----0--0----- 
E|------------------------------------------------- 
 
 
-------------------- 
| Middle 8: (1.40) | 
-------------------- 
'Forget the applications..' 
 
Guitar 1 (lead) 
   4     1     2     3     4     1     2     3     4      
e|------------------------------------------------------- 
B|------------------------------------------------------- 
G|------------------------------------------------------- 
D|------------------------------------------------------- 
A|-7--9--0-----------------------2----------------------- 
E|------------------------------------------------------- 
 
Guitar 2 (rhythm) 
   1     2     3     4     1     2     3     4      
e|------------------------------------------------- 
B|------------------------------------------------- 
G|------------------------------------------------- 
D|-------5-----------5-----------7-----------7----- 
A|-5--5--5-----5--5--5-----7--7--7-----7--7--7----- 
E|-3--3--3-----3--3--3-----5--5--5-----5--5--5----- 
   pm~~	       pm~~        pm~~        pm~~ 
 
 
Guitar 1 
   1     2     3     4     1     2     3     4      
e|-7--7-----7--7-----7--7-----7--7------------------ 
B|-7--7--7--7--7--7--7--7--7--7--7--9^-------9^----- 
G|-------9^-------9^-------9^-------9^-------9^-9-7- 
D|-------------------------------------------------- 
A|-------------------------------------------------- 
E|-------------------------------------------------- 
         full     full     full     half     half 
Guitar 2 
   1     2     3     4     1     2     3     4      
e|------------------------------------------------- 
B|------------------------------------------------- 
G|------------------------------------------------- 
D|-------9-----------9-----------9-----------9----- 
A|-9--9--9-----9--9--9-----9--9--9-----9--9--9----- 
E|-7--7--7-----7--7--7-----7--7--7-----7--7--7----- 
   pm~~	       pm~~        pm~~        pm~~ 
 
 
Guitar 1 
   1     2     3     4     1     2     3     4      
e|------------------------------------------------- 
B|------------------------------------------------- 
G|------------------------------------------------- 
D|-9----------------------------------------------- 
A|------------------------------------------------- 
E|------------------------------------------------- 
 
Guitar 2 
   1     2     3     4     1     2     3     4      
e|------------------------------------------------- 
B|------------------------------------------------- 
G|------------------------------------------------- 
D|-------5-----------5-----------7-----------7----- 
A|-5--5--5-----5--5--5-----7--7--7-----7--7--7----- 
E|-3--3--3-----3--3--3-----5--5--5-----5--5--5----- 
   pm~~	       pm~~        pm~~        pm~~ 
 
 
Guitar 1 
   1     2     3     4     1     2     3     4      
e|------------------------------------------------- 
B|-7^-------9^----------7^------------------------- 
G|-7^-------9^----7-----7^----9--7--9--9-\7--7-\5-- 
D|-------9-----------9----------------------------- 
A|------------------------------------------------- 
E|------------------------------------------------- 
   half     half        half 
 
Guitar 2 
   1     2     3     4     1     2     3     4      
e|------------------------------------------------- 
B|------------------------------------------------- 
G|------------------------------------------------- 
D|-------9-----------9-----------9-----------9----- 
A|-9--9--9-----9--9--9-----9--9--9-----9--9--9----- 
E|-7--7--7-----7--7--7-----7--7--7-----7--7--7----- 
   pm~~	       pm~~        pm~~        pm~~ 
 
Guitar 1 
   1     2     3     4     1     2     3     4      
e|------------------------------------------------- 
B|------------------------------------------------- 
G|-5----------------------------------------------- 
D|------------------------------------------------- 
A|------------------------------------------------- 
E|------------------------------------------------- 
 
Guitar 2 
   1     2     3     4     1     2     3     4      
e|------------------------------------------------- 
B|------------------------------------------------- 
G|------------------------------------------------- 
D|-------5-----------5-----------7-----------7----- 
A|-5--5--5-----5--5--5-----7--7--7-----7--7--7----- 
E|-3--3--3-----3--3--3-----5--5--5-----5--5--5----- 
   pm~~	       pm~~        pm~~        pm~~ 
 
Guitar 1 
   1     2     3     4     1     2     3     4      
e|------------------------------------------------- 
B|-------------------------------9^----7^---------- 
G|-------7--9^.---7--------------9^----7^---------- 
D|-7--9-----------------9-----7--------------9----- 
A|------------------------------------------------- 
E|------------------------------------------------- 
 
 
Guitar 2 
   1     2     3     4     1     2     3     4      
e|------------------------------------------------- 
B|------------------------------------------------- 
G|------------------------------------------------- 
D|-------9-----------9-----------9-----------9----- 
A|-9--9--9-----9--9--9-----9--9--9-----9--9--9----- 
E|-7--7--7-----7--7--7-----7--7--7-----7--7--7----- 
   pm~~	       pm~~        pm~~        pm~~ 
 
Guitar 1 
   1     2     3     4     1     2     3     4      
e|------------------------------------------------- 
B|------------------------------------------------- 
G|------------------------------------------------- 
D|------------------------------------------------- 
A|-5----------------------/7----------------------- 
E|------------------------------------------------- 
 
Guitar 2 
   1     2     3     4     1     2     3     4      
e|------------------------------------------------- 
B|------------------------------------------------- 
G|------------------------------------------------- 
D|-------5-----------5-----------7-----------7----- 
A|-5--5--5-----5--5--5-----7--7--7-----7--7--7----- 
E|-3--3--3-----3--3--3-----5--5--5-----5--5--5----- 
   pm~~	       pm~~        pm~~        pm~~ 
 
Single guitar 
   1     2     3     4     1     2     3     4      
e|------------------------------------------------- 
B|------------------------------------------------- 
G|-3--3-----3--3-----3--3-----3--3--3--3-----3----- 
D|-4--4-----4--4-----4--4-----4--4--4--4-----4----- 
A|-4--4-----4--4-----4--4-----4--4--4--4-----4----- 
E|-2--2-----2--2-----2--2-----2--2--0--2-----2----- 
 
----------------- 
| Outro: (2.04) | 
----------------- 
 
    1     2     3     4     1     2     3     4      
e|:------------------------------------------------- 
B|:----------------------3-----2-----------2--2----- 
G|:-4-----4--------4-----2-----2-----------2--2----- 
D|:-4-----4--------4-----0-----2-----------2--2----- 
A|:-2-----2--------2-----------0-----------0--0----- 
E|:------------------------------------------------- 
 
   1     2     3     4     1     2     3     4      
e|-0-----0-----0--0-----3-----3--3----------------:| 
B|-0-----0-----0--0-----3-----3--3--2-----3--2----:| 
G|-x-----x-----x--x-----0-----0--0--2-----2--2----:| 
D|-2-----2-----2--2-----0-----0--0--2-----2--2----:| 
A|-2-----2-----2--2-----x-----x--x--0-----0--0----:| 
E|-0-----0-----0--0-----3-----3--3----------------:|    x2 
 
   1     2     3     4     1     2     3     4      
e|------------------------------------------------- 
B|----------------------3-------------------------- 
G|-4--------------------2-------------------------- 
D|-4-----4--4--4--4--4--0-----2--2--2--2--2--2--0-- 
A|-2-----2--2--2--2--2--------0--0--0--0--0--0--0-- 
E|----------------------------------------------0-- 
          pm~~~~~~~~~~~        pm~~~~~~~~~~~~~~~~~ 
 
   1     2     3     4     1     2     3     4      
e|------------------------------------------------- 
B|------------------------------------------------- 
G|----------------------------------2-----2--2----- 
D|----------------------------------2-----2--2----- 
A|-2--2--2--2--2--2--2--------------0-----0--0----- 
E|-0--0--0--0--0--0--0--3-----2--0----------------- 
   pm~~~~~~~~~~~~~~~~~ 
 
   1     2     3     4     1     2     3     4      
e|------------------------------------------------- 
B|----------------------3-----2-----------3--2----- 
G|-4-----4--------4-----2-----2-----------2--2----- 
D|-4-----4--------4-----0-----2-----------2--2----- 
A|-2-----2--------2-----------0-----------0--0----- 
E|------------------------------------------------- 
 
   1     2     3     4     1     2     3     4      
e|-0-----0-----0--0-----3-----3-------------------- 
B|-0-----0-----0--0-----3-----3-----2-------------- 
G|-x-----x-----x--x-----0-----0-----2-------------- 
D|-2-----2-----2--2-----0-----0-----2-------------- 
A|-2-----2-----2--2-----x-----x-----0-------------- 
E|-0-----0-----0--0-----3-----3-------------------- 
 
share this page

See Also: