E-Chords
The Donnas

Take It Off(Tabs)

The Donnas

roll up this ad to continue

 
intro 4x 
 
 
------------------------------------------------3--------------------- 
-------------3---------3-3----------------------0----------3---------- 
-------------2---2---2-2-2-2--------------------0------2---2---2------ 
--4-6-6-4----2---2---2-2-2-2--------4-6-6-4-----0------2---2---2------ 
--2-2-2-2--------0---0-----0--------2-2-2-2-----2------0-------0------ 
------------------------------------------------3--------------------- 
 
 
verso 2x 
 
------------------------------------------------3--------------- 
--------------3---------3-3---------------------0-------3------- 
--4-4-4-4-----2---2---2-2-2-2-------4-4-4-4-----0-----2-2-2----- 
--4-4-4-4-----2---2---2-2-2-2-------4-4-4-4-----0-----2-2-2----- 
--2-2-2-2---------0---0-----0-------2-2-2-2-----2-----0---0----- 
------------------------------------------------3--------------- 
    x x                               x x 
 
               refrao 2x 
'uh huh!'      
   f#          
  -2-          ------------------0-----3---------------------- 
  -2-          --------3---------0-----0---------------------- 
  -3-          --4-----2---2-----1x----0---------2------------ 
  -4-          --4-----2---2-----2-----0---------2------------ 
  -4-          --2---------0-----2-----2---------0------------ 
  -2-          ------------------0-----3---2-0---------------- 
 
intro 1x 
 
verso 2x, f# 
 
refrao 2x, f# 
 
solo base 2x 
 
--------------------------------------------------------------------- 
-----------------3----------------------3---------------------------- 
-4---4---4-4-4---2------4---4---4-4-4---2---2------------------------ 
-4---4---4-4-4---0------4---4---4-4-4---0---2------------------------ 
-2---2---2-2-2----------2---2---2-2-2-------0------------------------ 
--------------------------------------------------------------------- 
 
 
  
-----3-------3-------5-------5-------7-------7-------7-------7------- 
-----3-------3-------5-------5-------7-------7-------7-------7------- 
-----4-------4-------6-------6-------8-------8-------8-------8------- 
-----5-------5-------7-------7-------9-------9-------9-------9------- 
-----5-------5-------7-------7-------9-------9-------9-------9------- 
-3-3-3---3-3-3---5-5-5---5-5-5---7-7-7---7-7-7---7-7-7---7-7-7------- 
 x x     x x     x x     x x     x x     x x     x x     x x 
 
 
  f#f#  f#f#  f#f#  f#f#  f#  f# 
--2-2---2-2---2-2---2-2---2---2------------ 
--2-2---2-2---2-2---2-2---2---2------------ 
--3-3---3-3---3-3---3-3---3---3------------ 
--4-4---4-4---4-4---4-4---4---4------------ 
--4-4---4-4---4-4---4-4---4---4------------ 
--2-2---2-2---2-2---2-2---2---2------------ 
 
refrao 2x, refrao abafado 
  
------------------0-----3---3--------------- 
--------3---------0-----0---0--------------- 
--4-----2---2-----1x----0---0-----2--------- 
--4-----2---2-----2-----0---0-----2--------- 
--2---------0-----2-----2---2-----0--------- 
------------------0-----3---3--------------- 
fim 
 
solo 
------------------------------------------ 
------------------------------------------ 
---b----b----br-------a-h----------------- 
--9----9----9----7-----7------------------ 
---------------------9---9-7----7--------- 
-----------------------------9-----9-7---- 
 
 
--------------------------------b--------------------b-------------------- 
-------------------------------7--------------7-7-7-9----7---------------- 
-------------------------------7--------------7-7-7-9----7------------sl-- 
-9---9---9-7-9---9---9---9---7--------9---9------------------9-7-9---9-4-- 
-------------------------------------------------------------------------- 
-------------------------------------------------------------------------- 
 
 
 
---------------p-h---b---b-------------------------- 
--------------4-2-4-4-----4-----4----p---h-p-------- 
----------2---4-2-4-4-----4-----4-----2-2-4-2------- 
--2---4--------------------------------------------- 
---------------------------------------------------- 
---------------------------------------------------- 
 
 
------------------------------------------------------------------------- 
------------------------------------------------------------------------- 
--p-p-h-p-p-h-p-p-h-p-p-h-p-p-h-p-p-h-p-p-h-p-p-h-p-p-h-p-p-------------- 
-4-2-0-4-2-0-4-2-0-4-2-0-4-2-0-4-2-0-4-2-0-4-2-0-4-2-0-4-2-0---2---4---2- 
------------------------------------------------------------------------- 
------------------------------------------------------------------------- 
 
'forget the application' 
--7-7-------7-----7-7---7-7-b---b-r------- 
--7-7---b---7---b-----b-----9---9-9-p----- 
--------9-------9-----9-----9---9-9-7----- 
--------------------------------------9--- 
------------------------------------------ 
------------------------------------------ 
 
'you're the right guy for the task' 
---b---------b-------------b-------------------------------- 
--7---------9-----7-------7--------------------------------- 
--7---------9-----7-------7-----------------p------sl------- 
--------9-------------9-------9---7---9---9---7---7---5---5- 
------------------------------------------------------------ 
------------------------------------------------------------ 
 
'let me take you on vacation' 
---------------------------------------------------------- 
-----------br----------------b---------------------------- 
------7---9---7-------7-----9---7------------------------- 
--9---7---9---7---9---7-----9---7---9--------------------- 
--9---------------9-----------------9--------------------- 
---------------------------------------------------------- 
 
i'm on my second drink 
but i've had a few before 
i'm trying hard to think 
and i think that i want you on the floor 
uh-huh, yeah on the floor 
 
go on and take it off (take it off) 
you got to shake it off baby for me 
come on and break me off (break me off) 
cause i get what i want and i like what i see 
 
Need your love-one, two, three 
stop starin at my d-cup 
don't waste time just give it to me 
c'mon baby just feel me up 
c'mon, just give it up 
 
go on and take it off (take it off) 
you got to shake it off baby for me 
come on and break me off (break me off) 
cause i get what i want and i like what i see 
 
forget the application 
you're the right guy for the task 
and let me take you on vacation 
just do it, you don't have to ask 
 
go on and take it off (take it off) 
you got to shake it off baby for me 
come on and break me off (break me off) 
cause i get what i want and i like what i see 
 
take it off 
take it off baby for me 
take it off 
take it off baby for meeeeeeeeeeeeeeeee  
 
 
_______________________________________________________ 
Contribuição: Bernardo Araujo Rodrigues([email protected]) 
share this page

See Also: