E-Chords
The Donnas

Don't Wait Up For Me(Tabs)

The Donnas

roll up this ad to continue

Key: G2
~ - vibrato 
h - Hammer on 
p - pull off 
(y)^(x) - (fretted note) Bend (desired note) 
/ - slide 
* - palm mute on, ** - palm mute off 

(intro) 

(Allison) 
E|-|--------------------| 
B|-|--------------------| 
G|-|11----11-14-11-9-11-| 
D|-|11----11-14-11-9-11-| 
A|-|-9-----9-12--9-7--9-| 
E|-|--------------------| 

(it's actually a second guitar that does these parts but if 
you can find a way to do them with one, more power to you) 
 G2 
E|----------------|-------| 
B|----------------|-------| 
G|----------------|-9--11-| 
D|----------------|-9--11-| 
A|---7-7------7-9-|-7---9-| 
E|-9-----10-9-----|-------| 

E|-----------------------| 
B|-----------------------| 
G|-11-11-9-11---11-14-11-| 
D|-11-11-9-11---11-14-11-| 
A|--9--9-7--9----9-12--9-| 
E|-----------------------| 

E|----------------|-------| 
B|----------------|-------| 
G|----------------|-9--11-| 
D|----------------|-9--11-| 
A|---7-7------7-9-|-7---9-| 
E|-9-----10-9-----|-------| 

(verse) 
E|-----------------------------| 
B|-----------------------------| 
G|-----------------------------| 
D|-4-x-x-x-4-x-4--*4-4-4-4-4-4-| 
A|-4-x-x-x-4-x-4--*4-4-4-4-4-4-| 
E|-2-x-x-x-2-x-2--*2-2-2-2-2-2-|___ 
                                  \ 
E|----------------|                 \ 
B|----------------|                 / X2 
G|-**6-7----4--6--|________________/ 
D|-**6-7----4--6--| 
A|-**4-5----2--4--| 
E|----------------| 

(guitar 2) 
E|-------------------------| 
B|-------------------------| 
G|-------------------------| 
D|------4-------4-----2-4--| 
A|-4-5----7-5-2---2h4------| 
E|-------------------------| 

(pre-Chorus) 
E|----------------------------------| 
B|----------------------------------| 
G|-7-----9--------------------------| 
D|-7-----9-----------4--------------| 
A|-5-----7-----------4--------------| 
E|-------------------2--------------| 
| 
|(as i said above, if you can do this on one guitar without 
|ruining the ringing of the chords, i salute you) 
 G2 
E|----------------------------------| 
B|----------------------------------| 
G|----------------------------------| 
D|----------------------------------| 
A|----9-------7-9-------2--0--------| 
E|----------9-----------------2--0--| 

E|-----------------| 
B|-----------------| 
G|-7----9----------| 
D|-7----9----------| 
A|-5----7----------| 
E|-----------------| 
| 
 G2 
E|-----------------| 
B|-----------------| 
G|-----------------| 
D|-----------------| 
A|-------------7-9-| 
E|------------9----| 

(Refrão) 

(intro) 
E|-|--------------------| 
B|-|--------------------| 
G|-|11----11-14-11-9-11-| 
D|-|11----11-14-11-9-11-| 
A|-|-9-----9-12--9-7--9-| 
E|-|--------------------| 

 G2 
E|----------------|-------| 
B|----------------|-------| 
G|----------------|-9--11-| 
D|----------------|-9--11-| 
A|---7-7------7-9-|-7---9-| 
E|-9-----10-9-----|-------| 

E|-----------------------| 
B|-----------------------| 
G|-11-11-9-11---11-14-11-| 
D|-11-11-9-11---11-14-11-| 
A|--9--9-7--9----9-12--9-| 
E|-----------------------| 

 G2 
E|----------------|-------| 
B|----------------|-------| 
G|----------------|-9--11-| 
D|----------------|-9--11-| 
A|---7-7------7-9-|-7---9-| 
E|-9-----10-9-----|-------| 

(fill) 
E|------------------| 
B|------------------| 
G|------------------| 
D|-*4-4-4-4-4-4-4-4-| 
A|-*4-4-4-4-4-4-4-4-| 
E|-*2-2-2-2-2-2-2-2-| 

(verse) 

(pre-Refrão) 
(Refrão) 

(interlude) 
E|-------------| 
B|-------------| 
G|-7----4----2-| 
D|-7----4----2-| 
A|-5----2----0-| 
E|-------------| 

E|--------------| 
B|--------------| 
G|-7----------2-| 
D|-7----2-4-7-2-| 
A|-5----2-4-7-2-| 
E|------0-2-5-0-| 

E|-------------| 
B|-------------| 
G|-7----4----2-| 
D|-7----4----2-| 
A|-5----2----0-| 
E|-------------| 

E|-----------| 
B|-----------| 
G|-7----9----| 
D|-7----9----| 
A|-5----7----| 
E|-----------| 

(solo) 
E|---------------------------------------| 
B|----------------------10---------------| 
G|-------9----11--9-11----11----9--11-11-| 
D|-9/11----11---------------11-----------| 
A|---------------------------------------| 
E|---------------------------------------| 

E|--------------------------------------------------------- 
B|----------10----10-12^(14)--12^(14)^(12)p10----10h12p10-- 
G|-11-9-11-----11-----------------------------11---------11 
D|--------------------------------------------------------- 
A|--------------------------------------------------------- 
E|--------------------------------------------------------- 

------------------------------------| 
-10--------------------14--------14-| 
-----11---14-16-16^(18)---16^(18)---| 
------------------------------------| 
------------------------------------| 
------------------------------------| 

E|--------14-------14-------14-------14-| 
B|--------------------------------------| 
G|-16^(18)--16^(18)--16^(18)--16^(18)---| 
D|--------------------------------------| 
A|--------------------------------------| 
E|--------------------------------------| 
(the bends make them look like they count for more but 
those bend notes only count as an 8th note) 
E|--------14--------14---------14--14------14--------| 
B|-17^(19)---17^(19)----17^(19)----17^(19)-17^(19)---| 
G|---------------------------------------------------| 
D|---------------------------------------------------| 
A|---------------------------------------------------| 
E|---------------------------------------------------| 

E|-17^(19)-17-14-17^(19)-17-14---14~~~~~-| 
B|-----------------------------17--------| 
G|---------------------------------------| 
D|---------------------------------------| 
A|---------------------------------------| 
E|---------------------------------------| 

(pre-Refrão) 

(drum fill) (rest) 

(Refrão)  

The song ends on these notes of the Chorus 
E|-------| 
B|-------| 
G|-9--11-| 
D|-9--11-| 
A|-7---9-| 
E|-------| 
share this page

See Also: