E-Chords
The Devil Wears Prada

roll up this ad to continue

Tuning: B F# B E G# C# 


Intro x2 
e|-----------------------------------------------------------------| 
B|-----------------------------------------------------------------| 
G|-----------------------------------------------------------------| 
D|-5-5-5-5-5-5-5-5-5-5-5-5-5-5-5-5-1-1-1-1-1-1-1-1-1-1-1-1-1-1-1-1-| 
A|-5-5-5-5-5-5-5-5-5-5-5-5-5-5-5-5-1-1-1-1-1-1-1-1-1-1-1-1-1-1-1-1-| 
E|-5-5-5-5-5-5-5-5-5-5-5-5-5-5-5-5-1-1-1-1-1-1-1-1-1-1-1-1-1-1-1-1-| 

Intro with lead 
Rhythm 
e|-----------------------------------------------------------------| 
B|-----------------------------------------------------------------| 
G|-----------------------------------------------------------------| 
D|-5-5-5-5-5-5-5-5-5-5-5-5-5-5-5-5-1-1-1-1-1-1-1-1-1-1-1-1-1-1-1-1-| 
A|-5-5-5-5-5-5-5-5-5-5-5-5-5-5-5-5-1-1-1-1-1-1-1-1-1-1-1-1-1-1-1-1-| 
E|-5-5-5-5-5-5-5-5-5-5-5-5-5-5-5-5-1-1-1-1-1-1-1-1-1-1-1-1-1-1-1-1-| 

Lead 
e|-10--13--10-13--15-13-----15---13--| 
B|----------------------15-----------| 
G|-----------------------------------| 
D|-----------------------------------| 
A|-----------------------------------| 
E|-----------------------------------| 


Chorus x2 
Rhythm 
e|-----------------------------------------------------------------| 
B|-----------------------------------------------------------------| 
G|-----------------------------------------------------------------| 
D|-1-1-1-1-1-1-1-1-1-1-1-1-1-1-1-1-5-5-5-5-5-5-5-5-5-5-5-5-5-5-5-5-| 
A|-1-1-1-1-1-1-1-1-1-1-1-1-1-1-1-1-5-5-5-5-5-5-5-5-5-5-5-5-5-5-5-5-| 
E|-1-1-1-1-1-1-1-1-1-1-1-1-1-1-1-1-5-5-5-5-5-5-5-5-5-5-5-5-5-5-5-5-| 

Lead 
e|-----------------------------------------------------------------| 
B|-----------------------------------------------------------------| 
G|-12----------------------11------15----------------------14------| 
D|--x-x12-------------------x-x4----x-x12-------------------x-x4---| 
A|-10-----------------------9------13----------------------12------| 
E|-----------------------------------------------------------------| 


e|--------------------------| 
B|--------------------------| 
G|--------------------------| 
D|-5555555555555555-5-3-5ph-| 
A|--------------------------| 
E|--------------------------| 

verse 2   x2 
e|-------------------------------------------------| 
B|-------------------------------------------------| 
G|-------------------------------------------------| 
D|-5-5-5-5-5-5-5-5-5-5-5-5-5-5-5-5-5-5-5-5-1-1-1-1-| 
A|-5-5-5-5-5-5-5-5-5-5-5-5-5-5-5-5-5-5-5-5-1-1-1-1-| 
E|-5-5-5-5-5-5-5-5-5-5-5-5-5-5-5-5-5-5-5-5-1-1-1-1-| 
   . . . . . . . . . . . . . . . . . . . . 



Chorus x3 1/2 
Rhythm 
e|-----------------------------------------------------------------| 
B|-----------------------------------------------------------------| 
G|-----------------------------------------------------------------| 
D|-1-1-1-1-1-1-1-1-1-1-1-1-1-1-1-1-5-5-5-5-5-5-5-5-5-5-5-5-5-5-5-5-| 
A|-1-1-1-1-1-1-1-1-1-1-1-1-1-1-1-1-5-5-5-5-5-5-5-5-5-5-5-5-5-5-5-5-| 
E|-1-1-1-1-1-1-1-1-1-1-1-1-1-1-1-1-5-5-5-5-5-5-5-5-5-5-5-5-5-5-5-5-| 

Lead 
e|-----------------------------------------------------------------| 
B|-----------------------------------------------------------------| 
G|-12----------------------11------15----------------------14------| 
D|--x-x12-------------------x-x4----x-x12-------------------x-x4---| 
A|-10-----------------------9------13----------------------12------| 
E|-----------------------------------------------------------------| 
share this page

See Also: