E-Chords
The Devil Wears Prada

Supernova(Tabs)

The Devil Wears Prada

roll up this ad to continue

Key: A
Tuning:Drop A 

Guitar 1 (0:00-0:07) Intro part 1 
B|---------------------------------------------------------------------------| 
Gb|--------------------------------------------------------------------------| 
D|---------------------------------------------------------------------------| 
A|---------------------------------------------------------------------------| 
E|-------------------------------------------------------3-------------------| 
A|-7-7-xx--xx--xx7b-7-xx7b-7-xx7b-7-xx--xx--xx7b-7-xx3-2---------------------| 

Guitar 1 (0:08-0:16) Intro part 2 
B|---------------------------------------------------------------------------| 
Gb---------------------------------------------------------------------------| 
D|---------------------------------------------------------------------------| 
A|---------------------------------------------------------------------------| 
E|----------------------3----------------------------------------------------| 
A|-7-7-xx--xx--xx7b-7-xx--3-2---7-7-xx-xx-xx7-7-xx-xx------------------------| 

Guitar 1 (0:17-0:30) Chorus 
B|---------------------------------------------------------------------------| 
Gb|-13/5/13/5/13/5/13/5/13/5-12/5/12/5/12/5x4--------------------------------| 

Guitar 2 (0:17-0:30) Chorus 
B|---------------------------------------------------------------------------| 
Gb|--------------------------------------------------------------------------| 
D|--------Play-this-pattern-twice-but-3rd-fret-second-time-through-----------| 
A|---------------------------------------------------------------------------| 
E|-77-777777---7777-777777---77-7777-77-7777-777777777777--------------------| 
A|-77-777777---7777-777777---77-7777-77-7777-777777777777--------------------| 

Guitar 1 (0:31-0:45) 
B|---------------------------------------------------------------------------| 
Gb|------9~--------------------9~--------------------------------------------| 
D|---5~--------------------5~------------------------------------------------| 
A|-----7~----------5-6-------7~----------5-6---------------------------------| 
E|-----------5-7-8-----------------5-7-8-----0-------------------------------| 
A|---------------------0~----------------------------------------------------| 

Guitar 1 (0:31-0:54) 
B|---------------------------------------------------------------------------| 
Gb|--------------------------------------------------------------------------| 
D|---------------------------------------------------------------------------| 
A|---------------------------------------------------------------------------| 
E|---------------------------------------------------------------------------| 
A|-7777-10777777-8777777-1077777777777777x2----------------------------------| 

Guitar 1 (0:55-1:04) last part of tab is 10th fret once then 24x 7th fret 
B|---------------------------------------------------------------------------| 
Gb|--------------------------------------------------------------------------| 
D|---------------------------------------------------------------------------| 
A|---------------------------------------------------------------------------| 
E|---------------------------------------------------------------------------| 
A|--0000-0000000-0003333-3333333-3337777-10777777-8777777-107x24--xx--xx-----| 

Guitar 1 (1:04-1:20) 
B|--------------------------------------------------------------------------------------------| 
Gb|-17/5/17/5/17/5/17/5/17/5---13/5/13/5/13/5x4---13/5/13/5/13/5/13/5/13/5---12/5/12/5/12/5x4-| 

Guitar 2 (1:04-1:20) Chorus 
B|---------------------------------------------------------------------------| 
Gb|--------------------------------------------------------------------------| 
D|--------Play-this-pattern-twice-but-3rd-fret-second-time-through-----------| 
A|---------------------------------------------------------------------------| 
E|-77-777777---7777-777777---77-7777-77-7777-777777777777--------------------| 
A|-77-777777---7777-777777---77-7777-77-7777-777777777777--------------------| 

Guitar 1 (01:21-1:35) 
B|---------------------------------------------------------------------------| 
Gb|------9~--------------------9~--------------------------------------------| 
D|---5~--------------------5~------------------------------------------------| 
A|-----7~----------5-6-------7~----------5-6---------------------------------| 
E|-----------5-7-8-----------------5-7-8-----0-------------------------------| 
A|---------------------0~----------------------------------------------------| 

Guitar 1 (1:36-1:50) Intro part 1 
B|---------------------------------------------------------------------------------| 
Gb|--------------------------------------------------------------------------------| 
D|---------------------------------------------------------------------------------| 
A|------------------------------------------------first-run-only-------------------| 
E|---------------------------------------------------|-------|-Play-the-part-twice-| 
A|-7-7-xx--xx--xx7b-7-xx7b-7-xx7b-7-xx--xx--xx7b-7-xx|7b-7-xx|-x2------------------| 

Guitar 1 (1:51-2:06 
B|---------------------------------------------------------------------------| 
Gb|--------------------------------------------------------------------------| 
D|---------------------------------------------------------------------------| 
A|---------------------------------------------------------------------------| 
E|-5-55-5-55-5-5555-5-55555-5-55555-2-22-2-22-2-2222-2-22222-2-22222---------| 
A|-5-55-5-55-5-5555-5-55555-5-55555-2-22-2-22-2-2222-2-22222-2-22222-x2------| 

Guitar 1 (2:07-2:13) 
B|---------------------------------------------------------------------------| 
Gb|--------------------------------------------------------------------------| 
D|---------------------------------------------------------------------------| 
A|---------------------------------------------------------------------------| 
E|-7-77-7-77-7-7777-7-77777-7-77777-7-77-7-77-7-7777-7-77777-----------------| 
A|-7-77-7-77-7-7777-7-77777-7-77777-7-77-7-77-7-7777-7-77777-----------------| 

Guitar 1 (2:14-2:50) 
B|--------------------------------------------------------------------------------------------| 
Gb|-17/5/17/5/17/5/17/5/17/5---13/5/13/5/13/5x4---13/5/13/5/13/5/13/5/13/5---12/5/12/5/12/5x4-| 

Guitar 2 (2:14-2:50) Chorus/Outro  
B|-----------------------------------------------------------------------------| 
Gb|----------------------------------------------------------------------------| 
D|-----------------------------------------------------------------------------| 
A|-----------------------------------------------------------------------------| 
E|-77-777777---7777-777777---77-7777-77-7777-777777777777-3----5---whole-thing-| 
A|-77-777777---7777-777777---77-7777-77-7777-777777777777-3x24-5x8------x2-----| 

And that does it... Any questions or changes you can comment below. I respond to most! 
share this page

See Also: