E-Chords
The Devil Wears Prada

R.i.t.(Tabs)

The Devil Wears Prada

roll up this ad to continue

Key: D

Intro: 

e|------------------------------------------------------------------------| 
B|------------------------------------------------------------------------| 
G|------------------------------------------------------------------------| 
D|-0---0-00-6/-1-000------0--4-4-4-4-3-3-3-6/-1-000------0--4-4-4-4-1-1-1-| 
A|-0---0-00-6/-1-000------0--4-4-4-4-3-3-3-6/-1-000------0--4-4-4-4-1-1-1-| 
D|-0---0-00-6/-1-000--13--0--4-4-4-4-3-3-3-6/-1-000--13--0--4-4-4-4-1-1-1-| 
  .   . ..      ...                            ...       

e|----------------------------------------------| 
B|----------------------------------------------| 
G|----------------------------------------------| 
D|-6/--------------0-00-6/-1-----0-4-4-4-00--2*-| 
A|-6/-0-0-0-0------0-00-6/-1-----0-4-4-4-00-----| 
D|-6/-1-1-1-1------0-00-6/-1-13--0-4-4-4-00-----| 
     . . . .      . ..          .       .. 

Verse 1: 

e|----------------------------------------------------------------------------------| 
B|----------------------------------------------------------------------------------| 
G|----------------------------------------------------------------------------------| 
D|-0-0--0-0--0-0-0-0-0-0-0-0-0-0----0-0-0-0-0000-0000-0-0-0-0-0-0-0-0--4-4----3-3-3-| 
A|-0-0--0-0--0-0-0-0-0-0-0-0-0-0----0-0-0-0-0000-0000-0-0-0-0-0-0-0-0--4-4-00-3-3-3-| 
D|-0-0--0-0--0-0-0-0-0-0-0-0-0-0----0-0-0-0-0000-0000-0-0-0-0-0-0-0-0--4-4-00-3-3-3-| 
  . .  . .  . . . . . . . . . .    . . . . .... .... . . . . . . . .      ..   

e|-----------------------------------------------------------------------------------------| 
B|-----------------------------------------------------------------------------------------| 
G|-----------------------------------------------------------------------------------------| 
D|-0-0--0-0--0-0-0-0-0-0-0-0-0-0----0-0-0-0-0000-0000-0-0-0-0-0-0-0-0--4-4----1-1-1--0-----| 
A|-0-0--0-0--0-0-0-0-0-0-0-0-0-0----0-0-0-0-0000-0000-0-0-0-0-0-0-0-0--4-4-00-1-1-1--0---5-| 
D|-0-0--0-0--0-0-0-0-0-0-0-0-0-0----0-0-0-0-0000-0000-0-0-0-0-0-0-0-0--4-4-00-1-1-1--0-----| 
  . .  . .  . . . . . . . . . .    . . . . .... .... . . . . . . . .      ..        .   

Verse 1: 

e|-----------------------------------------------------------------------------------| 
B|-----------------------------------------------------------------------------------| 
G|---7-7---7--6--7--------101010109-9-9-9----1010--10/12--10-12--------15-15-15-15---| 
D|-----------------------------------------------------------------------------------| 
A|---5-5---5--4--5--------8-8-8-8-7-7-7-7----8-8---8-/10--8--10--------13-13-13-13---| 
D|-00----00---------0-0-0------------------00----00-------------0-0-0--------------0-| 
  ..    ..         . . .                  ..    ..             . . .              . 

e|-----------------------------------------------------------------------------------| 
B|-----------------------------------------------------------------------------------| 
G|---7-7---7--6--7--------101010109-9-9-9----1010--10/12--10-12--------15-15-15-15---| 
D|-----------------------------------------------------------------------------------| 
A|---5-5---5--4--5--------8-8-8-8-7-7-7-7----8-8---8-/10--8--10--------13-13-13-13---| 
D|-00----00---------0-0-0------------------00----00-------------0-0-0--------------0-| 
  ..    ..         . . .                  ..    ..             . . .              . 

Pre-Chorus: 

e|---------------------------------------------------------| 
B|---------------------------------------------------------| 
G|---------------------------------------------------------| 
D|-----------------8--0----00-00-0--00-00-0---------3------| 
A|-7h8h7h0h5h7h5h0-8--0-5*-00-00-0--00-00-0---2-1-0-1--0-1-| 
D|-----------------8--0----00-00-0--00-00-0---2-1-0----0-1-| 
                     .    .. .. .  .. .. .   . . .    . 

e|-------------------------------------------------------| 
B|-------------------------------------------------------| 
G|-------------------------------------------------------| 
D|-----------------8--0----1~~---------3----3~~--7-------| 
A|-7h8h7h0h5h7h5h0-8--0-5*-1~~---2-1-0-1--0-3~~----3-5-7-| 
D|-----------------8--0----1~~---2-1-0----0-3~~----------| 
                     .          . . .    .  

Chorus (4x): 

e|------------------------------------------------------------------------| 
B|------------------------------------------------------------------------| 
G|------------------------------------------------------------------------| 
D|------------------------------------------------------------------------| 
A|-5-5-5-5-5-5------------------------------------------------------------| 
D|-------------0-0-0-0-0-0-0-0-0-0-15-15-15-15-0-0-0-0-15h0-0-15h0-0-15h0-| 

e|-----------------------------------------------------------| 
B|-----------------------------------------------------------| 
G|-----------------------------------------------------------| 
D|-5-5-5-5--5-5-5-5--5-5-5-5-8-8-8-8-8-8-8-8-7-7-------------| 
A|-5-5-5-5--5-5-5-5--5-5-5-5-8-8-8-8-8-8-8-8-----3-3-5-5-7-7-| 
D|-5-5-5-5--5-5-5-5--5-5-5-5-8-8-8-8-8-8-8-8-----------------| 


Post-Chorus: 

e|------------------------------------------| 
B|------------------------------------------| 
G|------------------------------------------| 
D|-00-----00-0-----00-0~~-----00000~~-----0-| 
A|-00-----00-0-----00-0~~-----00000~~-----0-| 
D|-00-----00-0-----00-0~~-----00000~~-----0-| 
  ..     .. .     ..         ....        . 

Verse 2: 

e|---------------------------------------------------| 
B|---------------------------------------------------| 
G|---------------------------------------------------| 
D|---------------------------------------------------| 
A|---------------------0-0-0-0---0-0-8-8-8-8-4-4-4-4-| 
D|-0--0-12--0-13--12---0-0-0-0---0-0-----------------| 
  .  .     .          . . . .   . . 

e|------------------------------------------3*---------| 
B|------------------------------------------3*---------| 
G|------------------------------------------3*---------| 
D|-----------------------------------------------------| 
A|--------------------0-0-0-0-0-0--0--0--0-----0-0-0-0-| 
D|-0--0-12--0-13--12--0-0-0-0-0-0--1--1--1-----0-0-0-0-| 
  .  .     .         . . . . . .  .  .  .     . . . . 

e|------------------------------------------------| 
B|------------------------------------------------| 
G|------------------------------------------------| 
D|------------------------------------------------| 
A|-0--0-0--0-0--0---0-0-0-0---0-0-8-8-8-8-4-4-4-4-| 
D|-0--0-0--0-0--0---0-0-0-0---0-0-----------------| 
  .  . .  . .  .   . . . .   . .  

e|------------------------------------------3*-------------| 
B|------------------------------------------3*-------------| 
G|------------------------------------------3*-------------| 
D|---------------------------------------------------------| 
A|--------------------0-0-0-0-0-0--0--0--0-----0-0-0-0-0-0-| 
D|-0--0-12--0-13--12--0-0-0-0-0-0--1--1--1-----0-0-0-0-0-0-| 
  .  .     .         . . . . . .  .  .  .     . . . . . . 

Verse 2: 

e|---------------------------------------------------------------| 
B|---------------------------------------------------------------| 
G|---------------------------------------------------------------| 
D|-6/-1-000------0--4-4-4-4-3-3-3-6/-1-000------0--4-4-4-4-1-1-1-| 
A|-6/-1-000------0--4-4-4-4-3-3-3-6/-1-000------0--4-4-4-4-1-1-1-| 
D|-6/-1-000--13--0--4-4-4-4-3-3-3-6/-1-000--13--0--4-4-4-4-1-1-1-| 
  .    ...                            ...       

e|------------------------------------------------------| 
B|------------------------------------------------------| 
G|------------------------------------------------------| 
D|-6/---------------0-00-6/-1-000------0--4-4-4-7-------| 
A|-6/-0-0-0-0--0----0-00-6/-1-000------0--4-4-4---3-5-7-| 
D|-6/-1-1-1-1--0----0-00-6/-1-000--13--0--4-4-4---------|  
     . . . .  .    . ..      ...       

Chorus (4x): 

e|------------------------------------------------------------------------| 
B|------------------------------------------------------------------------| 
G|------------------------------------------------------------------------| 
D|------------------------------------------------------------------------| 
A|-5-5-5-5-5-5------------------------------------------------------------| 
D|-------------0-0-0-0-0-0-0-0-0-0-15-15-15-15-0-0-0-0-15h0-0-15h0-0-15h0-| 

e|-----------------------------------------------------------| 
B|-----------------------------------------------------------| 
G|-----------------------------------------------------------| 
D|-5-5-5-5--5-5-5-5--5-5-5-5-8-8-8-8-8-8-8-8-7-7-------------| 
A|-5-5-5-5--5-5-5-5--5-5-5-5-8-8-8-8-8-8-8-8-----3-3-5-5-7-7-| 
D|-5-5-5-5--5-5-5-5--5-5-5-5-8-8-8-8-8-8-8-8-----------------| 


Post-Chorus: 

e|----------------------------------------------------------------------| 
B|----------------------------------------------------------------------| 
G|----------------------------------------------------------------------| 
D|-00-----00000-----00000~~-----0000----------------------------------0-| 
A|-00-----00000-----00000~~-----0000-6-6-6-6-6-6-6-6-6-6-6-6-6-6-6-6--0-| 
D|-00-----00000-----00000~~-----0000----------------------------------0-| 
  ..     .....     ....        .... 
share this page

See Also: