E-Chords
The Devil Wears Prada

Moongod(Tabs)

The Devil Wears Prada

roll up this ad to continue

Tuning: 
Intro(0:16-0:40) 
Db|---------------------------------------------------------------------------| 
Ab|-------------8~------------------------------------------------------------| 
E-|-10~---10~-------9~---9~---------------------------------------------------| 

Verse (0:41-1:07 same as intro 
Db|---------------------------------------------------------------------------| 
Ab|-------------8~------------------------------------------------------------| 
E-|-10~---10~-------9~---9~---------------------------------------------------| 

Chorus (1:08-1:31) 
B-|-5----7----------------------------------------------------------------------------------------| 
Gb|-5----7--------10---10-12----------10---10-15----------10---10-12----------10---10-8-----------| 
B-|-5x16-7x16-0-xx---xx------12-0---xx---xx------15---0-xx---xx------12-0---xx---xx-----12-x2-----| 

End Chorus (1:32-1:43) 
Db|---------------------------------------------------------------| 
Ab|-10-10-10--10-10-10---10--10---9-9-9---9-9-9---9-9-------------| 
E-|-7--7--7---7--7--7----7---7----7-7-7---7-7-7---7-7-------------| 
B-|---------------------------------------------------------------| 
Gb|----------0----------0----------------0-------0----------------| 
B-|----------0----------0----------------0-------0----x2----------| 

verse 2 (1:44-2:10)  
Db|---------------------------------------------------------------------------| 
Ab|-------------8~------------------------------------------------------------| 
E-|-10~---10~-------9~---9~---------------------------------------------------| 

Chorus 2 (2:11-2:32) 
B-|-5----7---------------------------------------------------------------------------------------| 
Gb|-5----7--------10---10-12----------10---10-15----------10---10-12----------10---10-10-8-------| 
B-|-5x16-7x16-0-xx---xx------12-0---xx---xx------15---0-xx---xx------12-0---xx---xx--------12-x2-| 

Chuggy Part 1 (2:32-2:43) 
B-|-----------------------------------------------------------| 
Gb|-3/5/3-00000-0-00000-0-00000-0-3-5-3/5/3-00000-0-00000-0---| 
B-|-------00000-0-00000-0-00000-0-3-5-------00000-0-00000-0-x2| 

Chuggy Part 2 (2:44-2:55) 
B-|-----------------------------------------------------------| 
Gb|-3/5/3-00000-0-00000-0-------------3/5/3-00000-0-00000-0---| 
B-|-------00000-0-00000-0-------------------00000-0-00000-0-x2| 

Chorus 2 (2:56-3:19) 
B-|-5----7---------------------------------------------------------------------------------------| 
Gb|-5----7--------10---10-12----------10---10-15----------10---10-12----------10---10-10-8-------| 
B-|-5x16-7x16-0-xx---xx------12-0---xx---xx------15---0-xx---xx------12-0---xx---xx--------12-x2-| 

Ending (3:20-3:48) 
Db|---------------------------------------------------------------| 
Ab|-10-10-10--10-10-10---10--10---9-9-9---9-9-9---9-9-------------| 
E-|-7--7--7---7--7--7----7---7----7-7-7---7-7-7---7-7-------------| 
B-|---------------------------------------------------------------| 
Gb|----------0----------0----------------0-------0----------------| 
B-|----------0----------0----------------0-------0----x2----------| 
share this page

See Also: