E-Chords
The Devil Wears Prada

Asteroid(Tabs)

The Devil Wears Prada

roll up this ad to continue

Key: B
Tuning:Drop B 

Intro Part 1(0:00-0:17) 
F#|-----6-------6-------6-------6-------4-------4-------4-------4-------------| 
B-|-0-xx--0-0-xx--0-0-xx--0-0-xx--0-0-xx--0-0-xx--0-0-xx--0-0-xx--0-x2--------| 

Intro Part 2(0:18-0:20) 
B-|-000-000-000-0-000-000-----------| 
F#|-000-000-000-0-000-000-----------| 
B-|-000-000-000-0-000-000-----------| 

Verse (0:21-0:33)                                         Hard to hear 
E-|-------------------------------------------------------------0~------------| 
B-|-------------------------------------------------------------0~------------| 
F#|---------------------------------------------------------------------------| 
B-|-0-000-0-000-0-000-000-0-000-000-0-000-0-000-0-000-000-0-000----x2---------| 

Verse continued (0:34-0:39) 
E-|---------------------------------------------------------------------------| 
B-|---------------------------------------------------------------------------| 
F#|---------------------------------------------------------------------------| 
B-|-5-555-5-555-5-555-555-5-555-555-8-888-8-888-8-888-888-8-888-888-----------| 

Verse continued again (0:40-46) 
F#|-0-000-0-000-0-000-000-0-000-000-0-000-0-000-0-000-000-0-000-000-----------| 
B-|-0-000-0-000-0-000-000-0-000-000-0-000-0-000-0-000-000-0-000-000-----------| 

Quiet part before the heavy stuff (0:47-0:57) 
B-|-0~-----------------8-----------------1------------------------------------| 
F#|-0~-----------------x-----------------x------------------------------------| 
B-|-0~-----------------8-----------------1------------------------------------| 

Heavy Stuff Guitar 1(0:58-1:23)It gets quieter at (1:10) 
F#|-----6-------6-------6-------6-------4-------4-------4-------4-------------| 
B-|-0-xx--0-0-xx--0-0-xx--0-0-xx--0-0-xx--0-0-xx--0-0-xx--0-0-xx--0-x2--------| 

Heavy Stuff Guitar 2(1:10-1:23) 
B=|-------13~---------13~---------12~---------12~-----------------------------| 
F#|-0-0-0-13~-0-0-0-0-13~---0-0-0-12~-0-0-0-0-12~-----------------------------| 
B-|-0-0-0-13~-0-0-0-0-13~---0-0-0-12~-0-0-0-0-12~-----------------------------| 

Breakdown AF Both Guitars (1:26-1:39) 
B=|-------13~---------13~---------12~---------12------------------------------| 
F#|-0-0-0-13~-0-0-0-0-13~---0-0-0-12~-0-0-0-0-12~-----------------------------| 
B-|-0-0-0-13~-0-0-0-0-13~---0-0-0-12~-0-0-0-0-12~-----------------------------| 

Imogen Heap sounding bit (1:40-2:15) 
Db|------IM-------------------------------------------------------------------| 
Ab|---------WORKING-----------------------------------------------------------| 
E-|-----------------ON--------------------------------------------------------| 
B=|--------------------THIS---------------------------------------------------| 
F#|-------------------------BIT-----------------------------------------------| 
B-|---------------------------------------------------------------------------| 

Epic part guitar 1 (2:16-3:04) 
Db|----------------------14v~-------------------------------------------------| 
Ab|-16v~---14v~---16v~--------------------------------------------------------| 

Epic part guitar 2 part 1 (2:40-2:52) NOT %100 BUT IT SOUNDS OKAY 
Db|---------------------------------------------------------------------------| 
Ab|-----------------14----------------------14-----14-------------------------| 
E-|-11~-------13-15----15-11-13---11~-13-15----15~-----15~--------------------| 
B=|-13~-15-16---------------------13~-----------------------------------------| 
F#|---------------------------------------------------------------------------| 
B-|---------------------------------------------------------------------------| 

Epic part guitar 2 part 2 (2:53-3:04) 
Db|---------------------------------------------------------------------------| 
Ab|-----------------14---------------=-----14-----14--------------------------| 
E-|-11~-------13-15----15-11~~---11~-13-15----15~-----15~---------------------| 
B=|-13~-15-16-------------14b~---13~------------------------------------------| 
F#|---------------------------------------------------------------------------| 
B-|---------------------------------------------------------------------------| 

FINALE Guitar 1 (3:05-3:55) 
E-|-------------------------Double-time---------------------------------------| 
B=|-1----6----8----1------1----6----8----1------------------------------------| 
F#|-1----4----8----1------1----4----8----1------------------------------------| 
B-|-1x16-4x16-8x16-1x16---1x32-4x32-8x32-1x32---------------------------------| 

FINALE Guitar 2 I think (3:05-3:55) Guitar is quieter on the first run 
Db|---------------------------------------------------------------------------| 
Ab|-16x16---14x8---11x4---14x4--16x14---18x2-19x16--x2-whole-thing------------| 

There you go. Hope you enjoyed learning this as much as I did breaking this down. 
share this page

See Also: