E-Chords
The Defiled

As I Drown(Tabs)

The Defiled

Key: F#
 
Tab starts from 00:15 in 
   INTRO 
B |--------------------------------|--------------------------------| 
F#|--------------------------------|--------------------------------| 
D |--------------------------------|--------------------------------| 
A |--------------------------------|--------------------------------| 
E |3---5---------------------------|----------------3-3-3-3-6-6-6-6-| 
A |--------0-0---0-0---0---0-0---0-|0---0---0-0---0-----------------| 
   E   E   S E   S E   E   S E   S  E   E   S E   S S S S S S S S S 

B |--------------------------------|--------------------------------| 
F#|--------------------------------|--------------------------------| 
D |--------------------------------|--------------------------------| 
A |--------------------------------|--------------------------------| 
E |3---5---------------------------|----------------3-3-3-3-6-6-6-6-| 
A |--------0-0---0-0---0---0-0---0-|0---0---0-0---0-----------------| 
   E   E   S E   S E   E   S E   S  E   E   S E   S S S S S S S S S 

B |--------------------------------|--------------------------------| 
F#|--------------------------------|--------------------------------| 
D |----------------3---------------|2-------------------------------| 
A |--------------------------------|--------------------------------| 
E |6---1---1-1---1-----1---1-1---1-|----1---1-1---1-3-3-3-3-6-6-6-6-| 
A |--------------------------------|--------------------------------| 
   E   E   S E   S E   E   S E   S  E   E   S E   S S S S S S S S S 

B |--------------------------------|--------------------------------| 
F#|--------------------------------|--------------------------------| 
D |--------------------------------|--------------------------------| 
A |----------------8---------------|7-------------------------------| 
E |6-------------------------------|--------------------------------| 
A |----5---5-5---5-----5---5-5---5-|----5---5-5---5-1-1-1-1-3-3-3-3-| 
   E   E   S E   S E   E   S E   S  E   E   S E   S S S S S S S S S 

B |--------------------------------|--------------------------------| 
F#|--------------------------------|--------------------------------| 
D |--------------------------------|--------------------------------| 
A |--------------------------------|--------------------------------| 
E |3---5---------------------------|----------------3-3-3-3-6-6-6-6-| 
A |--------0-0---0-0---0---0-0---0-|0---0---0-0---0-----------------| 
   E   E   S E   S E   E   S E   S  E   E   S E   S S S S S S S S S 

B |--------------------------------|--------------------------------| 
F#|--------------------------------|--------------------------------| 
D |--------------------------------|--------------------------------| 
A |--------------------------------|8---7---------------------------|(Harmony 5---4) 
E |3---5---------------------------|----------------3-3-3-3-6-6-6-6-| 
A |--------0-0---0-0---0---0-0---0-|--------0-0---0-----------------| 
   E   E   S E   S E   E   S E   S  E   E   S E   S S S S S S S S S 

B |--------------------------------|--------------------------------| 
F#|--------------------------------|--------------------------------| 
D |----------------3---------------|2-------------------------------| 
A |--------------------------------|--------------------------------| 
E |6---1---1-1---1-----1---1-1---1-|----1---1-1---1-3-3-3-3-6-6-6-6-| 
A |--------------------------------|--------------------------------| 
   E   E   S E   S E   E   S E   S  E   E   S E   S S S S S S S S S 

B |--------------------------------|--------------------------------| 
F#|--------------------------------|--------------------------------| 
D |--------------------------------|--------------------------------| 
A |----------------8---------------|7-------------------------------| 
E |6-------------------------------|--------------------------------| 
A |----5---5-5---5-----5---5-5---5-|----5---5-5---5-1-1-1-1-3-3-3-3-| 
   E   E   S E   S E   E   S E   S  E   E   S E   S S S S S S S S S 

B |--------------------------------|--------------------------------| 
F#|--------------------------------|--------------------------------| 
D |--------------------------------|--------------------------------| 
A |--------------------------------|--------------------------------| 
E |0-------------------------------|------------------------12\-----| 
A |0-------------------------------|------------------------12\-----| 
   W                                                        Q 

   VERSE 
B |--------------------------------|--------------------------------| 
F#|--------------------------------|--------------------------------| 
D |--------------------------------|--------------------------------| 
A |--------------------------------|--------------------------------| 
E |--------------------------------|--------------------------------| 
A |0---0---0-0---0-0---0---0-0---0-|0---0---0-0---0-3b--0-3b--0-3b--| 
   E   E   S E   S E   E   S E   S  E   E   S E   S E   S E   S E    

B |--------------------------------|--------------------------------| 
F#|--------------------------------|--------------------------------| 
D |--------------------------------|--------------------------------| 
A |--------------------------------|--------------------------------| 
E |--------------------------------|--------------------------------| 
A |0---0---0-0---0-0---0---0-0---0-|3-3-3-3-5-5-5-5-6-6-6-6-3-3-3-3-| 
   E   E   S E   S E   E   S E   S  S S S S S S S S S S S S S S S S   

B |--------------------------------|--------------------------------| 
F#|--------------------------------|--------------------------------| 
D |--------------------------------|--------------------------------| 
A |7-------------------------------|--------------------------------| 
E |5-------------------------------|--------------------------------| 
A |----0---0-0---0-0---0---0-0---0-|0---0---0-0---0-3b--0-3b--0-3b--| 
   E   E   S E   S E   E   S E   S  E   E   S E   S E   S E   S E    

B |--------------------------------|--------------------------------| 
F#|--------------------------------|--------------------------------| 
D |--------------------------------|--------------------------------| 
A |--------------8-----------------|7-------------------------------| 
E |--------------------------------|----------------1-------3-------| 
A |3-/-5---5-5-----5---5---5-5---5-|----5---5-5---5-1-------3-------| 
   E   E   S E   S E   E   S E   S  E   E   S E   S Q       Q    

B |--------------------------------|--------------------------------| 
F#|--------------------------------|--------------------------------| 
D |--------------------------------|--------------------------------| 
A |--------------------------------|--------------------------------| 
E |3---5---------------------------|--------------------------------| 
A |--------0-0---0-0---0---0-0---0-|0---0---0-0---0-3b--0-3b--0-3b--| 
   E   E   S E   S E   E   S E   S  E   E   S E   S E   S E   S E    

B |--------------------------------|--------------------------------| 
F#|--------------------------------|--------------------------------| 
D |--------------------------------|--------------------------------| 
A |--------------------------------|--------------------------------| 
E |3---5---------------------------|--------------------------------| 
A |--------0-0---0-0---0---0-0---0-|3-3-3-3-5-5-5-5-6-6-6-6-3-3-3-3-| 
   E   E   S E   S E   E   S E   S  S S S S S S S S S S S S S S S S   

B |--------------------------------|--------------------------------| 
F#|--------------------------------|--------------------------------| 
D |--------------------------------|--------------------------------| 
A |--------------------------------|--------------------------------| 
E |5-------------------------------|--------------------------------| 
A |----0---0-0---0-0---0---0-0---0-|0---0---0-0---0-3b--0-3b--0-3b--| 
   E   E   S E   S E   E   S E   S  E   E   S E   S E   S E   S E    

B |--------------------------------|--------------------------------| 
F#|--------------------------------|--------------------------------| 
D |--------------------------------|--------------------------------| 
A |--------------8-----------------|7-------------------------------| 
E |--------------------------------|--------------------------------| 
A |3-/-5---5-5-----5---5---5-5---5-|----5---5-5---5-1-1-1-1-3-3-3-3-| 
   E   E   S E   S E   E   S E   S  E   E   S E   S S S S S S S S S  

   Pre-Chorus 
B |--------------------------------|--------------------------------| 
F#|--------------------------------|--------------------------------| 
D |--------------------------------|--------------------------------| 
A |--------------------------------|--------------------------------| 
E |0-------------------------------|--------------------------------| 
A |0-------------------------------|--------------------------------| 
   W 

B |--------------------------------|--------------------------------| 
F#|--------------------------------|--------------------------------| 
D |--------2-----------------------|--------------------------------| 
A |--------0-----------------------|--------------------------------| 
E |0-------0-----------------------|0---3---3---3---3---3---3---3---| 
A |0-------0-----------------------|0---3---3---3---3---3---3---3---| 
   E       H.                       E   E   E   E   E   E   E   E 

   Chorus 
B |--------------------------------|--------------------------------| 
F#|--------------------------------|--------------------------------| 
D |--------------------------------|--------------------------------| 
A |3---3---3---3---3---3---3---3---|3---3---3---3---3---3---3---3---| 
E |1---1---1---1---1---1---1---1---|1---1---1---1---1---1---1---1---| 
A |--------------------------------|--------------------------------| 
   E   E   E   E   E   E   E   E    E   E   E   E   E   E   E   E 
  
B |--------------------------------|--------------------------------| 
F#|--------------------------------|--------------------------------| 
D |--------------------------------|--------------------------------| 
A |3-------------------------------|--------------------------------| 
E |1---5---5---5---5---5---5---5---|5---5---5---5---5---5---5---5---| 
A |----5---5---5---5---5---5---5---|5---5---5---5---5---5---5---5---| 
   E   E   E   E   E   E   E   E    E   E   E   E   E   E   E   E 

B |--------------------------------|--------------------------------| 
F#|--------------------------------|--------------------------------| 
D |--------------------------------|--------------------------------| 
A |--------------------------------|--------------------------------| 
E |5---0---0---0---0---0---0---0---|0---0---0---0---0---0---0---0---| 
A |5---0---0---0---0---0---0---0---|0---0---0---0---0---0---0---0---| 
   E   E   E   E   E   E   E   E    E   E   E   E   E   E   E   E 

B |--------------------------------|--------------------------------| 
F#|--------------------------------|--------------------------------| 
D |--------------------------------|--------------------------------| 
A |--------------------------------|--------------------------------| 
E |0---3---3---3---3---3---3---3---|3---3---3---3---3---3---3---3---| 
A |0---3---3---3---3---3---3---3---|3---3---3---3---3---3---3---3---| 
   E   E   E   E   E   E   E   E    E   E   E   E   E   E   E   E 

B |--------------------------------|--------------------------------| 
F#|--------------------------------|--------------------------------| 
D |--------------------------------|--------------------------------| 
A |----3---3---3---3---3---3---3---|3---3---3---3---3---3---3---3---| 
E |3---1---1---1---1---1---1---1---|1---1---1---1---1---1---1---1---| 
A |3-------------------------------|--------------------------------| 
   E   E   E   E   E   E   E   E    E   E   E   E   E   E   E   E 

B |--------------------------------|--------------------------------| 
F#|--------------------------------|--------------------------------| 
D |--------------------------------|--------------------------------| 
A |3-------------------------------|--------------------------------| 
E |1---5---5---5---5---5---5---5---|5---5---5---5---5---5---5---5---| 
A |----5---5---5---5---5---5---5---|5---5---5---5---5---5---5---5---| 
   E   E   E   E   E   E   E   E    E   E   E   E   E   E   E   E 

B |--------------------------------|--------------------------------| 
F#|--------------------------------|--------------------------------| 
D |--------------------------------|--------------------------------| 
A |--------------------------------|--------------------------------| 
E |0-------------------------------|------------------------12\-----| 
A |0-------------------------------|------------------------12\-----| 
   W                                                        Q 

   VERSE 
B |--------------------------------|--------------------------------| 
F#|--------------------------------|--------------------------------| 
D |--------------------------------|--------------------------------| 
A |--------------------------------|--------------------------------| 
E |--------------------------------|--------------------------------| 
A |0---0---0-0---0-0---0---0-0---0-|0---0---0-0---0-3b--0-3b--0-3b--| 
   E   E   S E   S E   E   S E   S  E   E   S E   S E   S E   S E    

B |--------------------------------|--------------------------------| 
F#|--------------------------------|--------------------------------| 
D |--------------------------------|--------------------------------| 
A |--------------------------------|--------------------------------| 
E |--------------------------------|--------------------------------| 
A |0---0---0-0---0-0---0---0-0---0-|3-3-3-3-5-5-5-5-6-6-6-6-3-3-3-3-| 
   E   E   S E   S E   E   S E   S  S S S S S S S S S S S S S S S S   

B |--------------------------------|--------------------------------| 
F#|--------------------------------|--------------------------------| 
D |--------------------------------|--------------------------------| 
A |--------------------------------|--------------------------------| 
E |5-------------------------------|--------------------------------| 
A |----0---0-0---0-0---0---0-0---0-|0---0---0-0---0-3b--0-3b--0-3b--| 
   E   E   S E   S E   E   S E   S  E   E   S E   S E   S E   S E    

B |--------------------------------|--------------------------------| 
F#|--------------------------------|--------------------------------| 
D |--------------------------------|--------------------------------| 
A |--------------8-----------------|7-------------------------------| 
E |--------------------------------|----------------1-------3-------| 
A |3-/-5---5-5-----5---5---5-5---5-|----5---5-5---5-1-------3-------| 
   E   E   S E   S E   E   S E   S  E   E   S E   S Q       Q    

B |--------------------------------|--------------------------------| 
F#|--------------------------------|--------------------------------| 
D |--------------------------------|--------------------------------| 
A |--------------------------------|--------------------------------| 
E |3---5---------------------------|--------------------------------| 
A |--------0-0---0-0---0---0-0---0-|0---0---0-0---0-3b--0-3b--0-3b--| 
   E   E   S E   S E   E   S E   S  E   E   S E   S E   S E   S E    

B |--------------------------------|--------------------------------| 
F#|--------------------------------|--------------------------------| 
D |--------------------------------|--------------------------------| 
A |--------------------------------|--------------------------------| 
E |3---5---------------------------|--------------------------------| 
A |--------0-0---0-0---0---0-0---0-|3-3-3-3-5-5-5-5-6-6-6-6-3-3-3-3-| 
   E   E   S E   S E   E   S E   S  S S S S S S S S S S S S S S S S   

B |--------------------------------|--------------------------------| 
F#|--------------------------------|--------------------------------| 
D |--------------------------------|--------------------------------| 
A |--------------------------------|--------------------------------| 
E |5-------------------------------|--------------------------------| 
A |----0---0-0---0-0---0---0-0---0-|0---0---0-0---0-3b--0-3b--0-3b--| 
   E   E   S E   S E   E   S E   S  E   E   S E   S E   S E   S E    

B |--------------------------------|--------------------------------| 
F#|--------------------------------|--------------------------------| 
D |--------------------------------|--------------------------------| 
A |--------------8-----------------|7-------------------------------| 
E |--------------------------------|----5---5---5---5---7---X---7---| 
A |3-/-5---5-5-----5---5---5-5---5-|----5---5---5---5---7---X---7---| 
   E   E   S E   S E   E   S E   S  E   E   E   E   E   E   E   E    

   Chorus 
B |--------------------------------|--------------------------------| 
F#|--------------------------------|--------------------------------| 
D |--------------------------------|--------------------------------| 
A |3---3---3---3---3---3---3---3---|3---3---3---3---3---3---3---3---| 
E |1---1---1---1---1---1---1---1---|1---1---1---1---1---1---1---1---| 
A |--------------------------------|--------------------------------| 
   E   E   E   E   E   E   E   E    E   E   E   E   E   E   E   E 
  
B |--------------------------------|--------------------------------| 
F#|--------------------------------|--------------------------------| 
D |--------------------------------|--------------------------------| 
A |3-------------------------------|--------------------------------| 
E |1---5---5---5---5---5---5---5---|5---5---5---5---5---5---5---5---| 
A |----5---5---5---5---5---5---5---|5---5---5---5---5---5---5---5---| 
   E   E   E   E   E   E   E   E    E   E   E   E   E   E   E   E 

B |--------------------------------|--------------------------------| 
F#|--------------------------------|--------------------------------| 
D |--------------------------------|--------------------------------| 
A |--------------------------------|--------------------------------| 
E |5---0---0---0---0---0---0---0---|0---0---0---0---0---0---0---0---| 
A |5---0---0---0---0---0---0---0---|0---0---0---0---0---0---0---0---| 
   E   E   E   E   E   E   E   E    E   E   E   E   E   E   E   E 

B |--------------------------------|--------------------------------| 
F#|--------------------------------|--------------------------------| 
D |--------------------------------|--------------------------------| 
A |--------------------------------|--------------------------------| 
E |0---3---3---3---3---3---3---3---|3---3---3---3---3---3---3---3---| 
A |0---3---3---3---3---3---3---3---|3---3---3---3---3---3---3---3---| 
   E   E   E   E   E   E   E   E    E   E   E   E   E   E   E   E 

B |--------------------------------|--------------------------------| 
F#|--------------------------------|--------------------------------| 
D |--------------------------------|--------------------------------| 
A |----3---3---3---3---3---3---3---|3---3---3---3---3---3---3---3---| 
E |3---1---1---1---1---1---1---1---|1---1---1---1---1---1---1---1---| 
A |3-------------------------------|--------------------------------| 
   E   E   E   E   E   E   E   E    E   E   E   E   E   E   E   E 

B |--------------------------------|--------------------------------| 
F#|--------------------------------|--------------------------------| 
D |--------------------------------|--------------------------------| 
A |3---5---5---5---5---5---5---5---|5---5---5---5---5---5---5---5---| 
E |1---3---3---3---3---3---3---3---|3---3---3---3---3---3---3---3---| 
A |--------------------------------|--------------------------------| 
   E   E   E   E   E   E   E   E    E   E   E   E   E   E   E   E 

   BRIDGE 
B |--------------------------------|--------------------------------| 
F#|--------------------------------|--------------------------------| 
D |--------------------------------|--------------------------------| 
A |5---7---7-------7/8\7---5-------|--------------------------------| 
E |3---5---5-------5/6\5---3---3---|----------------3---------------| 
A |----------------------------3---|----------------3---------------| 
   E   E   Q       S S E   E   E                    H 

B |--------------------------------|--------------------------------| 
F#|--------------------------------|--------------------------------| 
D |--------------------------------|--------------------------------| 
A |--------------------------------|--------------------------------| 
E |7-/-8-------8---8-------8---5---|----5---5-------5---5-------5---| 
A |7-/-8-------8---8-------8---5---|----5---5-------5---5-------5---| 
   E   Q       E   Q       E   E        E   Q       E   Q       E    

B |--------------------------------|--------------------------------| 
F#|--------------------------------|--------------------------------| 
D |--------------------------------|--------------------------------| 
A |5---7---7-------7/8\7---5-------|--------------------------------| 
E |3---5---5-------5/6\5---3---3---|----------------3---------------| 
A |----------------------------3---|----------------3---------------| 
   E   E   Q       S S E   E   E                    H 

B |--------------------------------|--------------------------------| 
F#|--------------------------------|--------------------------------| 
D |--------------------------------|--------------------------------| 
A |--------------------------------|--------------------------------| 
E |8---8---8---8---8---8---8---8---|8---8---8---8---8---8---8---8-/-| 
A |8---8---8---8---8---8---8---8---|8---8---8---8---8---8---8---8-/-| 
   E   E   E   E   E   E   E   E    E   E   E   E   E   E   E   E 

B |--------------------------------|--------------------------------| 
F#|--------------------------------|--------------------------------| 
D |--------------------------------|--------------------------------| 
A |--------------------------------|--------------------------------| 
E |10--10--10--10--10--10--10--10--|10--10--10--10--10--10--10\-----| 
A |10--10--10--10--10--10--10--10--|10--10--10--10--10--10--10\-----| 
   E   E   E   E   E   E   E   E    E   E   E   E   E   E   Q    

B |--------------------------------|--------------------------------| 
F#|--------------------------------|--------------------------------| 
D |--------------------------------|--------------------------------| 
A |7---------------7---------------|--------------------------------| 
E |5---------------5---------------|--------------------------------| 
A |----0---0---0-------0---0---0---|0---0---0---0---0---0---0---3b--| 
   E   E   E   E   E   E   E   E    E   E   E   E   E   E   E   E 

B |--------------------------------|--------------------------------| 
F#|--------------------------------|--------------------------------| 
D |--------------------------------|--------------------------------| 
A |----------------7---------------|--------------------------------| 
E |----------------5---------------|--------------------------------| 
A |----0---0---0-------0---0---0---|0---0---0---0---6---5---0---3b--| 
       E   E   E   E   E   E   E    E   E   E   E   E   E   E   E 

B |--------------------------------|--------------------------------| 
F#|--------------------------------|--------------------------------| 
D |--------------------------------|--------------------------------| 
A |----------------7---------------|--------------------------------| 
E |----------------5---------------|--------------------------------| 
A |----0---0---0-------0---0---0---|0-0-0---0---0---0---3b--0---3b--| 
       E   E   E   E   E   E   E    S S E   E   E   E   E   E   E 

B |--------------------------------|--------------------------------| 
F#|--------------------------------|--------------------------------| 
D |--------------------------------|--------------------------------| 
A |----------------7---------------|--------------------------------| 
E |----------------5---------------|--------------------------------| 
A |----0---0---0-------0---0---0---|6---0---5---0---3---5---0---3b--| 
       E   E   E   E   E   E   E    E   E   E   E   E   E   E   E 

B |--------------------------------|--------------------------------| 
F#|--------------------------------|--------------------------------| 
D |--------------------------------|--------------------------------| 
A |--------7-----------------------|--------------------------------| 
E |--------5-----------------------|--------------------------------| 
A |----0---0---0---0---0---0---0---|0---0---0---0---0---3b--0---3b--| 
       E   E   E   E   E   E   E    E   E   E   E   E   E   E   E 

B |--------------------------------|--------------------------------| 
F#|--------------------------------|--------------------------------| 
D |--------------------------------|--------------------------------| 
A |--------7-----------------------|--------------------------------| 
E |--------5-----------------------|--------------------------------| 
A |----0-------0---0---0---0---0---|6---0---5---0---3---5---0---3b--| 
       E   E   E   E   E   E   E    E   E   E   E   E   E   E   E 

B |--------------------------------|--------------------------------| 
F#|--------------------------------|--------------------------------| 
D |--------------------------------|--------------------------------| 
A |----------------7---------------|--------------------------------| 
E |----------------5---------------|--------------------------------| 
A |----0---0---0-------0---0---0---|0-0-0---0---0---0---3b--0---3b--| 
       E   E   E   E   E   E   E    S S E   E   E   E   E   E   E 

B |--------------------------------|--------------------------------| 
F#|--------------------------------|--------------------------------| 
D |--------------------------------|--------------------------------| 
A |----------------7---------------|--------------------------------| 
E |----------------5---------------|--------------------------------| 
A |----0---0---0-------0---0---0---|6---0---5---0---3-/-5-\-3-/-5---| 
       E   E   E   E   E   E   E    E   E   E   E   E   E   E   E 


   Chorus 
    
   4 Bars Rest 

B |--------------------------------|--------------------------------| 
F#|--------------------------------|--------------------------------| 
D |--------------------------------|--------------------------------| 
A |--------------------------------|--------------------------------| 
E |0---0---0---0---0---0---0---0---|0---0---0---0---0---0---0---0---| 
A |0---0---0---0---0---0---0---0---|0---0---0---0---0---0---0---0---| 
   E   E   E   E   E   E   E   E    E   E   E   E   E   E   E   E 

B |--------------------------------|--------------------------------| 
F#|--------------------------------|--------------------------------| 
D |--------------------------------|--------------------------------| 
A |--------------------------------|--------------------------------| 
E |0---3---3---3---3---3---3---3---|3---3---3---3---3---3---3---3---| 
A |0---3---3---3---3---3---3---3---|3---3---3---3---3---3---3---3---| 
   E   E   E   E   E   E   E   E    E   E   E   E   E   E   E   E 

B |--------------------------------|--------------------------------| 
F#|--------------------------------|--------------------------------| 
D |--------------------------------|--------------------------------| 
A |----3---3---3---3---3---3---3---|3---3---3---3---3---3---3---3---| 
E |3---1---1---1---1---1---1---1---|1---1---1---1---1---1---1---1---| 
A |3-------------------------------|--------------------------------| 
   E   E   E   E   E   E   E   E    E   E   E   E   E   E   E   E 
  
B |--------------------------------|--------------------------------| 
F#|--------------------------------|--------------------------------| 
D |--------------------------------|--------------------------------| 
A |3-------------------------------|--------------------------------| 
E |1---5---5---5---5---5---5---5---|5---5---5---5---5---5---5---5---| 
A |----5---5---5---5---5---5---5---|5---5---5---5---5---5---5---5---| 
   E   E   E   E   E   E   E   E    E   E   E   E   E   E   E   E 

B |--------------------------------|--------------------------------| 
F#|--------------------------------|--------------------------------| 
D |--------------------------------|--------------------------------| 
A |--------------------------------|--------------------------------| 
E |5---0---0---0---0---0---0---0---|0---0---0---0---0---0---0---0---| 
A |5---0---0---0---0---0---0---0---|0---0---0---0---0---0---0---0---| 
   E   E   E   E   E   E   E   E    E   E   E   E   E   E   E   E 

B |--------------------------------|--------------------------------| 
F#|--------------------------------|--------------------------------| 
D |--------------------------------|--------------------------------| 
A |--------------------------------|--------------------------------| 
E |0---3---3---3---3---3---3---3---|3---3---3---3---3---3---3---3---| 
A |0---3---3---3---3---3---3---3---|3---3---3---3---3---3---3---3---| 
   E   E   E   E   E   E   E   E    E   E   E   E   E   E   E   E 

B |--------------------------------|--------------------------------| 
F#|--------------------------------|--------------------------------| 
D |--------------------------------|--------------------------------| 
A |----3---3---3---3---3---3---3---|3---3---3---3---3---3---3---3---| 
E |3---1---1---1---1---1---1---1---|1---1---1---1---1---1---1---1---| 
A |3-------------------------------|--------------------------------| 
   E   E   E   E   E   E   E   E    E   E   E   E   E   E   E   E 

B |--------------------------------|--------------------------------| 
F#|--------------------------------|--------------------------------| 
D |--------------------------------|--------------------------------| 
A |3---5---5---5---5---5---5---5---|5---5---5---5---5---5---5---5---| 
E |1---3---3---3---3---3---3---3---|3---3---3---3---3---3---3---3---| 
A |--------------------------------|--------------------------------| 
   E   E   E   E   E   E   E   E    E   E   E   E   E   E   E   E 

   OUTRO 
B |--------------------------------|--------------------------------| 
F#|--------------------------------|--------------------------------| 
D |--------------------------------|--------------------------------| 
A |--------------------------------|--------------------------------| 
E |3---5---------------------------|----------------3-3-3-3-6-6-6-6-| 
A |--------0-0---0-0---0---0-0---0-|0---0---0-0---0-----------------| x4 
   E   E   S E   S E   E   S E   S  E   E   S E   S S S S S S S S S 

B |--------------------------------| 
F#|--------------------------------| 
D |--------------------------------| 
A |--------------------------------| 
E |--------------------------------| 
A |0---0---0-0---0-0---0-----------| 
   E   E   S E   S E   Q.            

Sorry about the length of the tab, and lack of repeats. Alot of variables 
in each segment which make it slightly different each time. 

Note values as follows: 
(as written underneath tab) 
W-Whole Note 
H-Half Note 
Q-Quarter Note 
E-Eighth Note 
S-Sixteenth Note 

************************************ 

| /   slide up 
| \   slide down 
| h   hammer-on 
| p   pull-off 
| ~   vibrato 
| +   harmonic 
| x   Mute note 
| b   Bend 
| pb  Pre-bend 
| br  Bend release 
| pbr Pre-bend release 
| brb Bend release bend 

************************************ 

roll up this ad to continue

share this page

See Also: