E-Chords
The Cardigans

Losing My Favourite Game (acoustic)(Tabs)

The Cardigans

roll up this ad to continue

Intro
 
e|-----------------|---------------|---------------|------------------------| 
B|----3h4--4p3-----|----4--4p3-----|----4--4p3-----|-------4-----------6----| 
G|------5-------5--|----3-------3--|----5-------5--|-------5-----------7----| 
D|------5----------|----3----------|-3-------------|----------6-----------8-| 
A|-3---------------|---------------|---------------|----6-----------8-------| 
E|-----------------|-6-------------|---------------|-4-----------6----------| 


Verse 1
 
e|---------------|---------------|---------------|-------------------------| 
B|----4--4p3-----|----4--4p3-----|----4--4p3-----|-------------------------| 
G|----5-------5--|----3-------3--|----5-------5--|-------5-----------7-----| 
D|----5----------|----3----------|-3-------------|----------6-----------8--| 
A|-3-------------|---------------|---------------|----6-----------8--------| 
E|---------------|-6-------------|---------------|-4-----------6-----------| 

e|---------------|---------------|---------------|-------------------------| 
B|----4--4p3-----|----4--4p3-----|----4--4p3-----|-------4-----------6-----| 
G|----5-------5--|----3-------3--|----5-------5--|-------5-----------7-----| 
D|----5----------|----3----------|-3-------------|----------6-----------8--| 
A|-3-------------|---------------|---------------|----6-----------8--------| 
E|---------------|-6-------------|---------------|-4-----------6-----------| 

e|-----------------|---------------|---------------|------------------------| 
B|----3h4--4p3-----|----4--4p3-----|----4--4p3-----|-------4-----------6----| 
G|------5-------5--|----3-------3--|----5-------5--|-------5-----------7----| 
D|------5----------|----3----------|-3-------------|----------6-----------8-| 
A|-3---------------|---------------|---------------|----6-----------8-------| 
E|-----------------|-6-------------|---------------|-4-----------6----------| 


Verse 2
 
e|---------------|---------------|---------------|-------------------------| 
B|----4--4p3-----|----4--4p3-----|----4--4p3-----|-------------------------| 
G|----5-------5--|----3-------3--|----5-------5--|-------5-----------7-----| 
D|----5----------|----3----------|-3-------------|----------6-----------8--| 
A|-3-------------|---------------|---------------|----6-----------8--------| 
E|---------------|-6-------------|---------------|-4-----------6-----------| 

e|---------------|---------------|---------------|-------------------------| 
B|----4--4p3-----|----4--4p3-----|----4--4p3-----|-------4-----------6-----| 
G|----5-------5--|----3-------3--|----5-------5--|-------5-----------7-----| 
D|----5----------|----3----------|-3-------------|----------6-----------8--| 
A|-3-------------|---------------|---------------|----6-----------8--------| 
E|---------------|-6-------------|---------------|-4-----------6-----------| 


Chorus
 
e||------------------------|------------------------|-----------------------| 
B||-------4-----------4----|-------6-----------6----|-------4-----------4---| 
G||.------5-----------5----|-------5-----------5----|-------5-----------5---| 
D||.---5-----5-----5-----5-|----5-----5-----5-----5-|----5-----5-----5-----5| 
A||-3-----------3----------|-3-----------3----------|-----------------------| 
E||------------------------|------------------------|-6-----------6---------| 

e|------------------------||------------------------|-----------------------| 
B|-------4-----------4----||-------4-----------4----|-------6-----------6---| 
G|-------5-----------5---.||-------5-----------5----|-------5-----------5---| 
D|----5-----5-----5-----5.||----5-----5-----5-----5-|----5-----5-----5-----5| 
A|------------------------||-3-----------3----------|-3-----------3---------| 
E|-3-----------6----------||------------------------|-----------------------| 

e|------------------------|------------------------|-------------| 
B|-------6-----------6----|-------4-----------4----|-------4--4--| 
G|-------3-----------3----|-------5-----------5----|-------5-----| 
D|----5-----5-----5-----5-|----5-----5-----5-----5-|----5--------| 
A|-3-----------3----------|------------------------|-------------| 
E|------------------------|-6-----------6----------|-3-----------| 

e|-----------------| 
B|-4----4----x--4--| 
G|-5----5----x--5--| 
D|-5----5----x--5--| 
A|-----------------| 
E|-----------------| 


Verse 3
 
e|---------------|---------------|---------------|-------------------------| 
B|----4--4p3-----|----4--4p3-----|----4--4p3-----|-------------------------| 
G|----5-------5--|----3-------3--|----5-------5--|-------5-----------7-----| 
D|----5----------|----3----------|-3-------------|----------6-----------8--| 
A|-3-------------|---------------|---------------|----6-----------8--------| 
E|---------------|-6-------------|---------------|-4-----------6-----------| 

e|---------------|---------------|---------------|-------------------------| 
B|----4--4p3-----|----4--4p3-----|----4--4p3-----|-------4-----------6-----| 
G|----5-------5--|----3-------3--|----5-------5--|-------5-----------7-----| 
D|----5----------|----3----------|-3-------------|----------6-----------8--| 
A|-3-------------|---------------|---------------|----6-----------8--------| 
E|---------------|-6-------------|---------------|-4-----------6-----------| 


Chorus 

e||------------------------|------------------------|-----------------------| 
B||-------4-----------4----|-------6-----------6----|-------4-----------4---| 
G||.------5-----------5----|-------5-----------5----|-------5-----------5---| 
D||.---5-----5-----5-----5-|----5-----5-----5-----5-|----5-----5-----5-----5| 
A||-3-----------3----------|-3-----------3----------|-----------------------| 
E||------------------------|------------------------|-6-----------6---------| 

e|------------------------||------------------------|-----------------------| 
B|-------4-----------4----||-------4-----------4----|-------6-----------6---| 
G|-------5-----------5---.||-------5-----------5----|-------5-----------5---| 
D|----5-----5-----5-----5.||----5-----5-----5-----5-|----5-----5-----5-----5| 
A|------------------------||-3-----------3----------|-3-----------3---------| 
E|-3-----------6----------||------------------------|-----------------------| 

e|------------------------|------------------------|-------------| 
B|-------6-----------6----|-------4-----------4----|-------4--4--| 
G|-------3-----------3----|-------5-----------5----|-------5-----| 
D|----5-----5-----5-----5-|----5-----5-----5-----5-|----5--------| 
A|-3-----------3----------|------------------------|-------------| 
E|------------------------|-6-----------6----------|-3-----------| 

e|-------------------3-|------------------------|-----------| 
B|-4----4----3p4-------|----------4p3-----------|------4----| 
G|-5----5---------5----|-------5-------5--------|------5----| 
D|-5----5--------------|----5-------------5-----|------5----| 
A|---------------------|-3-------------------3--|-3----3----| 
E|---------------------|------------------------|-----------| 
 
share this page

See Also: