E-Chords
The Cardigans

Celia Inside(Tabs)

The Cardigans

roll up this ad to continue

Key: B
Intro (0,0) <--Timer 
e|---5-5---5--5----5-5-----5---5----5-5----9h10h9s7-7s5-5--------5--------------| 
B|---0-0---0--0----7-7----7----7----0-0------------------------7----------------| 
G|---0-0---0--0----6-6---6-----6----0-0----------------------6------------------| 
D|------------------------------------------------------------------------------| 
A|---------------0------0----0-----------------------------0--------------------| 
E|-0------0--0--------------------0------0--------------------------------------| 

 verse 1 (0,10) 
e|---5-5---5--5----5-5---3s5--3s5----5-5-----------------5-5--0h5p0-------------| 
B|---0-0---0--0----7-7---5s7--5s7----0-0----0--3--5s7----7-7---------7----------| 
G|---0-0---0--0----6-6---4s6--4s6----0-0-----------------6-6------------6-------| 
D|------------------------------------------------------------------------------| 
A|---------------0------0------------------------------0------------------------| 
E|-0------0--0---------------------0------0-------------------------------------| 

          (0,20) 
e|---5-5---5T-5----5-5-----7--5-------5-5----5---5----5-5---5--5----------------| 
B|---0-0---0--0----7-7----7------7----0-0---0----0----7-7---7--7----------------| 
G|---0-0---0--0----6-6---6------------0-0--0-----0----6-6---6--6----------------| 
D|------------------------------------------------------------------------------| 
A|---------------0------0---------------------------0------0--0-----------------| 
E|-0------0-------------------------0-------------------------------------------| 

          (0,30) 
e|---5-5T---5--7--7s9----5-5---3s5--3s5----5T5-----------------5-5---5--5-------| 
B|---0-0-----------------7-7---5s7--5s7----0-0----0--3--5s7----7-7---7--7-------| 
G|---0-0-----------------6-6---4s6--4s6----0-0-----------------6-6---6--6-------| 
D|------------------------------------------------------------------------------| 
A|---------------------0------0------------------------------0------0--0--------| 
E|-0------0------------------------------0------0-------------------------------| 

          (0,39) 
e|---7-7---7--7----5-5------5---| 
B|---6-6---6--6----7-7-----7----| 
G|---7-7---7--7----5-5----5-----| 
D|-----------------------7------| 
A|-5------5--5---6------6-------| 
E|------------------------------| 

 verse 2 (0,44) 
e|---5T5---5T-5----5-5----5---5----5T5--7-7s9-7s5----5-5---7--5------------------| 
B|---0-0---0--0----7-7---7----7----0-0---------------7-7---7-----7---------------| 
G|---0-0---0--0----6-6--6-----6----0-0---------------6-6---6---------------------| 
D|-------------------------------------------------------------------------------| 
A|---------------0---------------------------------0------0----------------------| 
E|-0------0--0-------------------0-----------------------------------------------| 

          (0,54) 
e|---5-5T--5T-5----5-5---3s5--3s5----5T5T-3-5p3p0----5-5---5--5------------------| 
B|---0-0---0--0----7-7---5s7--5s7----0-0-------------7-7---7--7------------------| 
G|---0-0---0--0----6-6---4s6--4s6----0-0-------------6-6---6--6------------------| 
D|-------------------------------------------------------------------------------| 
A|---------------0------0--------------------------0------0--0-------------------| 
E|-0------0--0---------------------0---------------------------------------------| 

          (1,04) 
e|---7-7---7--7-----------------| 
B|---6-6---6--6--7--8--7--------| 
G|---7-7---7--7--5--7--6--------| 
D|---------------7--9--5--------| 
A|-5------5--5---6--7-----------| 
E|---------------------5--------| 

 Chorus (1,09) Repeat 3 times 
e|------------------7-----------------------------------| 
B|-------7--------7--7---------5----------5-------------| 
G|-----6--6------7----7------4--4-------3--3------------| 
D|----7----7--5-------------5----5-----5----5-----------| 
A|-5---------------------3----------4-------------------| 
E|------------------------------------------------------| 

          (1,39) 4th time 
e|--------------7---------------------------------------| 
B|------7------7------------5-------5-------------------| 
G|----6--6----7------------4--------3-------------------| 
D|---7----7--5------------5---------5-------------------| 
A|-5---------------------3----------4-------------------| 
E|------------------------------------------------------| 

          (1,49) 
e|---5-5---5--5----5-5---5--5---------------------------| 
B|---0-0---0--0----7-7---7--7---------------------------| 
G|---0-0---0--0----6-6---6--6---------------------------| 
D|------------------------------------------------------| 
A|---------------0------0--0----------------------------| 
E|-0------0--0------------------------------------------| 

 Bridge (1,54) 
e|---5-5---5--5----5-5--(5)-5----5-5---5--5-----5-------| 
B|---0-0---0--0----7-7--(7)-7----0-0---0--0----7--------| 
G|---0-0---0--0----6-6--(6)-6----0-0---0--0---6---------| 
D|------------------------------------------------------| 
A|---------------0----------0----------------0----------| 
E|-0------0--------------------0------0--0--------------| 

 verse 3 (2,04) 
e|---5T5T--5T-5----5-5---3s5--3s5----5T5----------------5-5---0h5p0---------------| 
B|---0-0---0--0----7-7---5s7--5s7----0-0---0--3--5s7----7-7----------7------------| 
G|---0-0---0--0----6-6---4s6--4s6----0-0----------------6-6-------------6---------| 
D|--------------------------------------------------------------------------------| 
A|---------------0------0-----------------------------0-----(0)-------------------| 
E|-0------0--0---------------------0-----(0)--------------------------------------| 

          (2,14) 
e|---5-5---7s9--7--5h7----5-5---7--5-------5-5--9-10--7s5----5-5---5--5-----------| 
B|---0-0------------------7-7---7-----7----0-0---------------7-7---7--7-----------| 
G|---0-0------------------6-6---6----------0-0---------------6-6---6--6-----------| 
D|--------------------------------------------------------------------------------| 
A|----------------------0------0---------------------------0------0--0------------| 
E|-0-------------------------------------0----------------------------------------| 

          (2,24) 
e|---7-7---7--7-----------------| 
B|---6-6---6--6--7--8--7--------| 
G|---7-7---7--7--5--7--6--------| 
D|---------------7--9--5--------| 
A|-5------5--5---6--7-----------| 
E|---------------------5--------| 


 Chorus (2,28) Repeat 3 times 
e|------------------7-----------------------------------| 
B|-------7--------7--7---------5----------5-------------| 
G|-----6--6------7----7------4--4-------3--3------------| 
D|----7----7--5-------------5----5-----5----5-----------| 
A|-5---------------------3----------4-------------------| 
E|------------------------------------------------------| 

          (2,57) 4th time 
e|--------------7---------------------------------------| 
B|------7------7------------5-------5-------------------| 
G|----6--6----7------------4--------3-------------------| 
D|---7----7--5------------5---------5-------------------| 
A|-5---------------------3----------4-------------------| 
E|------------------------------------------------------| 

          (3,08) 
e|---5-5---5--5----5-5---5--5---------------------------| 
B|---0-0---0--0----7-7---7--7---------------------------| 
G|---0-0---0--0----6-6---6--6---------------------------| 
D|------------------------------------------------------| 
A|---------------0------0--0----------------------------| 
E|-0------0--0------------------------------------------| 

 Outro (3,13) 
e|---5-5-----------------5-5---3s5--3s5----5-5----9h10h9s7-7s5-5---5-5---0h5p0-----| 
B|---0-0----0--3--5s7----7-7---5s7--5s7----0-0---------------------7-7---------7---| 
G|---0-0-----------------6-6---4s6--4s6----0-0---------------------6-6-----------6-| 
D|---------------------------------------------------------------------------------| 
A|---------------------0------0-----------------------------------0-----(0)--------| 
E|-0------0------------------------------0-----(0)---------------------------------| 

         (3,23) 
e|---5-5--3-5p3p0----5-5---3s5--3s5----5-5----5-5-7x-------------------------------| 
B|---0-0-------------7-7---5s7--5s7----0-0---0--7-7x-------------------------------| 
G|---0-0-------------6-6---4s6--4s6----0-0--0---6-7x-------------------------------| 
D|---------------------------------------------------------------------------------| 
A|-----------------0------0--------------------------------------------------------| 
E|-0---------------------------------0---------------------------------------------|End 

 +Alternative End+ 
e|---5-5---5---------7H-----------------------------------------------------------| 
B|---0-0--0--------7H------and for the real live ending, make that sound with-----| 
G|---0-0-0-------7H--------your tong after the harmonics (clicking or something)--| 
D|-------------7H-----------------------------------------------------------------| 
A|--------------------------------------------------------------------------------| 
E|-0------------------------------------------------------------------------------| 

 +Trumpets during Chorus+ 
 (Peter plays this live instead of the chords) 
e|---------------------------------------------------------------------| 
B|---------------------------------------------------------------------| 
G|---------------------------------------------------------------------| 
D|---------------------------------------------------------------------| 
A|----------------------------------10p9h10-10-9h10p9h10--7---7-9-10---| Repeat. 
E|-12p10h12-12-10h12p10h12--10-----------------------------------------| 

************************************ 

| x    Dead note 
| (n)  Ghost note 
| h    Hammer-on 
| p    Pull-off 
| s    Slide 
| H    Harmonics 
| T    Touch the B string slightly with your fingertop or nail, 
       just to get a little rougher and harder sound. This can 
       be totally ignored during the song though :) 
|(0)   Optional play, can't really hear it. 

************************************ 
share this page

See Also: