E-Chords
The Cab

Another Me(Tabs)

The Cab

roll up this ad to continue

Intro: 

Guitar 1 
e|-----------------------------------------| 
B|-----------------------------------------| 
G|----------------5-7------------------5---| 
D|--7-----5-7-------------7----5-7------7--| (x2) 
A|-----7----------------------7------------| 
E|-----------------------------------------| 

Guitar 2 (0:05) 
e|------------------------------------12--12----------------------------------12--| 
B|--13--12--10--12--13--10---------------13--12--10--12--13--10-----13------------| 
G|--------------------------------------------------------------------------------| 
D|--------------------------------------------------------------------------------| 
A|--------------------------------------------------------------------------------| 
E|--------------------------------------------------------------------------------| 

Verse: 

Guitar 1 
e|-----------------------------------------| 
B|-----------------------------------------| 
G|----------------5-7------------------5---| 
D|--7-----5-7-------------7----5-7------7--| 
A|-----7----------------------7------------| 
E|-----------------------------------------| 

e|-------------------------------------| 
B|-------------------------------------| 
G|-----------------5-7-----------------| 
D|---7-----5-7--------------5-7--------| 
A|------7---------------0~--------7-7--| 
E|-------------------------------------| 

e|-----------------------------------------| 
B|-----------------------------------------| 
G|----------------5-7------------------5---| 
D|--7-----5-7-------------7----5-7------7--| 
A|-----7----------------------7------------| 
E|-----------------------------------------| 

e|-------------------------------------| 
B|-------------------------------------| 
G|-----------------5-7-----------------| 
D|---7-----5-7--------------5-7--------| 
A|------7---------------0~--------7-7--| 
E|-------------------------------------| 

Pre-Chorus: 

e|------| 
B|------| 
G|---7--| 
D|---7--| 
A|---5--| 
E|------| 

Chorus: 

e|----------------------------------------------------------------| 
B|----------------------------------------------------------------| 
G|------------5------------------------------------5--------------| 
D|--3--------5------5-------7--7/5-------3----5----5-----7--7/5---| 
A|--3--------3------5-------7--7/5-------3----3----5-----7--7/5---| 
E|--1----------------3-------5--5/3-------1---------3-----5--5/3--| 

e|-------------------------------| 
B|-------------------------------| 
G|--------5----------------------| 
D|--3----5---2----7--5---3---2---| 
A|--3----3---2----7--5---3---2---| 
E|--1---------0----5--3---1---0--| 

(Repeat Intro) x2 
(Repeat Verse) 
(Repeat Pre-Chorus) 
(Repeat Chorus) 

Bridge: 

e|--------------------| 
B|--------------------| 
G|--------------------| 
D|--7----5----4----3--| (x2) 
A|--7----5----4----3--| 
E|--5----3----2----1--| 

e|---------------| 
B|---------------| 
G|---------------| 
D|--7----5----4--| 
A|--7----5----4--| 
E|--5----3----2--| 

(Repeat Chorus)
 
share this page

See Also: