E-Chords
The Blues Brothers

Flip Flop And Fly(Tabs)

The Blues Brothers

roll up this ad to continue

Key: E
   E E E E E E E E   E E E E E E E E   E E E E E E E E   E E E E E E E E 
G|-----------------|-----------------|-----------------|------------------|| 
D|-----0-0-3-3-0-0-|-----0-0-3-3-0-0-|-----0-0-3-3-0-0-|-----0-0-3-3-0-0--|| 
A|-1-1-------------|-1-1-------------|-1-1-------------|-1-1--------------|| 
E|-----------------|-----------------|-----------------|------------------|| 


   1st & 3rd Verses 
     E E E E E E E E   E E E E E E E E   E E E E E E E E   E E E E E E E E 
G||------------------|-----------------|-----------------|-----------------| 
D||o-----0-0-3-3-0-0-|-----0-0-3-3-0-0-|-----0-0-3-3-0-0-|-----0-0-3-3-0-0-| 
A||o-1-1-------------|-1-1-------------|-1-1-------------|-1-1-------------| 
E||------------------|-----------------|-----------------|-----------------| 


   E E E E E E E E   E E E E E E E E   E E E E E E E E   E E E E E E E E 
G|-----0-0-3-3-0-0-|-----0-0-3-3-0-0-|-----------------|------------------| 
D|-1-1-------------|-1-1-------------|-----0-0-3-3-0-0-|-----0-0-3-3-0-0--| 
A|-----------------|-----------------|-1-1-------------|-1-1--------------| 
E|-----------------|-----------------|-----------------|------------------| 


   Q  Q  Q  Q    E E Q  Q  Q    Q  Q  Q  Q    E E Q  Q  Q 
G|-------------|--------------|-------------|---------------|| 
D|----0--1--2--|-3-3-2--0-----|----0--1--2--|-3-3-2--0------|| 
A|-3-----------|-----------3--|-1-----------|-----------3---|| 
E|-------------|--------------|-------------|---------------|| 


  2nd, 4th & 5th Verses 
   Segno $ 
   E E E E E E E E   E E E E E E E E   E E E E E E E E   E E E E E E E E 
G|-----------------|-----------------|-----------------|------------------| 
D|-----0-0-3-3-0-0-|-----0-0-3-3-0-0-|-----0-0-3-3-0-0-|-----0-0-3-3-0-0--| 
A|-1-1-------------|-1-1-------------|-1-1-------------|-1-1--------------| 
E|-----------------|-----------------|-----------------|------------------| 


   E E E E E E E E   E E E E E E E E   E E E E E E E E   E E E E E E E E 
G|-----0-0-3-3-0-0-|-----0-0-3-3-0-0-|-----------------|------------------| 
D|-1-1-------------|-1-1-------------|-----0-0-3-3-0-0-|-----0-0-3-3-0-0--| 
A|-----------------|-----------------|-1-1-------------|-1-1--------------| 
E|-----------------|-----------------|-----------------|------------------| 


   Q  Q  Q  Q    E E Q  Q  Q    E E E E E E E E   E E Q  Q  Q 
G|-------------|--------------|-----------------|---------------|| 
D|----0--1--2--|-3-3-2--0-----|-----0-0-1-1-2-2-|-3-3-2--0------|| 
A|-3-----------|-----------3--|-1-1-------------|-----------3---|| 
E|-------------|--------------|-----------------|---------------|| 


 Chorus 
   Q  Q  Q  Q    Q  Q  Q  Q    Q  Q  Q  Q    Q  Q  Q  Q 
G|-------------|-------------|-------------|--------------| 
D|-------------|-------------|-------------|----------0---| 
A|-1--------0--|-1--------0--|-1--------0--|-1--1--3------| 
E|----1--3-----|----1--3-----|----1--3-----|--------------| 


                                                  To Coda 
   Q  Q  Q  Q    E E Q  Q  Q    Q  Q  Q  Q    Q  Q  Q  Q 
G|-------------|--------------|-------------|--------------| 
D|-1--------0--|-1-1-0--------|-------------|--------------| 
A|----1--3-----|--------3--0--|-1--------0--|-1--0--1--2---| 
E|-------------|--------------|----1--3-----|--------------| 


                              1. 
   Q  Q  Q  Q    Q  Q  Q  Q    Q  Q  Q  Q    Q  Q  Q  Q 
G|-------------|-------------|-3-----------|---------------|| 
D|----0--1--2--|-3--2--0-----|----0--1--2--|-3--2--0------o|| 
A|-3-----------|----------3--|-------------|----------3---o|| 
E|-------------|-------------|-------------|---------------|| 


                              Sax Solo 
   2. 
   E Q.   Q  E E   W            Q  Q  Q  Q    E E Q  Q  Q 
G|-3-------------|----------||--------------|---------------| 
D|---0----1--2-3-|----------||o----------0--|-1-1-0--1--2---| 
A|---------------|----------||o-1--0--1-----|---------------| 
E|---------------|----------||--------------|---------------| 


   Q  Q  Q  Q    E E Q  Q  Q    Q  Q  Q  Q    E E Q  Q  Q     E  E Q  Q  Q 
G|-------------|--------------|----3--6--7--|-8-8-7--8--9--|-10-10----8-------| 
D|-3-----------|--------------|-1-----------|--------------|-------------6----| 
A|----------0--|-1-1-0--------|-------------|--------------|-------8----------| 
E|----3--4-----|--------3--1--|-------------|--------------|------------------| 


   E E Q  Q  Q    Q  Q  Q  Q    Q  Q  Q  Q    Q  Q  Q  Q 
G|-7-7----------|-------------|-------------|--------------| 
D|--------8-----|-------------|----5--6--7--|-8------------| 
A|-----8--------|----5--6--7--|-8-----------|----5--6--7---| 
E|-----------9--|-8-----------|-------------|--------------| 


                                 Outro 
   1.             2. 
                  D.S. al Coda    Coda & 
   Q  Q  Q  Q      Q  Q  Q  Q     Q  Q  Q  Q    Q  Q  Q  E E 
G|--------------||-------------||-------------|---------------| 
D|-------------o||-------------||----0--1--2--|-3-------------| 
A|-8--6--5--3--o||-8--6--5--3--||-3-----------|----------0-1--| 
E|--------------||-------------||-------------|----3--4-------| 


   E Q.   Q  E E   Q  E E +H       +W 
G|---------------|----4-3-(3)----|-(3)----*| 
D|---0----1--2-3-|---------------|--------*| 
A|---------------|---------------|--------*| 
E|---------------|---------------|--------*| 
  
 
share this page

See Also: