E-Chords
The Bennies

My Bike(Tabs)

The Bennies

Key: D
e|---------------| 
B|7-3-7-3-5-3---3| 
G|------------4--| 
D|---------------| 
A|---------------| 
E|---------------| x4 

Verse 

e|---------------------------------------------------------------------------| 
B|---------------------------------------------------------------------------| 
G|---------------------------------------------------------------------------| 
D|-7-------------------------------------------------------------------------| 
A|-5-------------------------------------------------------------------------| 
E|---------------------------------------------------------------------------| Let ring 

Pre-Chorus 

e|-------------------------------|    |--------------------------------------| 
B|-------------------------------|    |--------------------------------------| 
G|-------------------------------|    |--------------------------------------| 
D|-------------------------------|    |7-7-7-7-7-7-7-7-7-7-7-7-7-------------| 
A|5-5-5-5-5-5-5-5-7-7-7-7-7-7-7-7|    |5-5-5-5-5-5-5-5-5-5-5-5-5-------------| 
E|-------------------------------| x3 |--------------------------------------| 

Chorus 

            D5       A5       B5        G5 
'Cause it's My bike, My bike, My f***ing bike! 
     D5       A5       B5        G5 
It's My bike, My bike, My f***ing bike! 

Intro/Main Riff 

e|---------------| 
B|7-3-7-3-5-3---3| 
G|------------4--| 
D|---------------| 
A|---------------| 
E|---------------| x4 

Verse 

e|---------------------------------------------------------------------------| 
B|---------------------------------------------------------------------------| 
G|---------------------------------------------------------------------------| 
D|-7-------------------------------------------------------------------------| 
A|-5-------------------------------------------------------------------------| 
E|---------------------------------------------------------------------------| Let ring 

Pre-Chorus 

e|-------------------------------|    |--------------------------------------| 
B|-------------------------------|    |--------------------------------------| 
G|-------------------------------|    |--------------------------------------| 
D|-------------------------------|    |7-7-7-7-7-7-7-7-7-7-7-7-7-------------| 
A|5-5-5-5-5-5-5-5-7-7-7-7-7-7-7-7|    |5-5-5-5-5-5-5-5-5-5-5-5-5-------------| 
E|-------------------------------| x3 |--------------------------------------| 

Chorus 

            D5       A5       B5        G5 
'Cause it's My bike, My bike, My f***ing bike! 
     D5       A5       B5        G5 
It's My bike, My bike, My f***ing bike! 

Intro/Main Riff 

e|---------------| 
B|7-3-7-3-5-3---3| 
G|------------4--| 
D|---------------| 
A|---------------| 
E|---------------| x3 

Bridge 

e|---------------------------------------------------------------------------| 
B|7-3-7-3-5-3----------------------------------------------------------------| 
G|------------4-2-0~---------------------------------------------------------| 
D|---------------------------------------------------------------------------| 
A|---------------------------------------------------------------------------| 
E|---------------------------------------------------------------------------| Let ring 
                     Hey Anty! You ain't coming back to the city for 4 months now. Have a $400 fine. 
e|---------------------------------------------------------------------------| 
B|---------------------------------------------------------------------------| 
G|----------------------------7\---------------------------------------------| 
D|0--------------------------------------------------------------------------| 
A|---------------------------------------------------------------------------| 
E|---------------------------------------------------------------------------| 

************************************ 

| /   slide up 
| \   slide down 
| h   hammer-on 
| p   pull-off 
| ~   vibrato 
| +   harmonic 
| x   Mute note 
| b   Bend 
| pb  Pre-bend 
| br  Bend release 
| pbr Pre-bend release 
| brb Bend release bend 

************************************ 

roll up this ad to continue

share this page

See Also: