E-Chords
The Ataris

My Hotel Year(Tabs)

The Ataris

roll up this ad to continue

Key: A
 
Verse: 
Guitar 1  
e|---------------------------------------------------------| 
B|---------------------------------------------------------| 
G|--7---------------------12-----76-76-76-76--------12-| 
D|--7------4---5----------12-----76-76-76-76-4--5---12-| 
A|--5------4---5----------10-----54-54-54-54-4--5---10-| 
E|---------2---3---------------------------------2--3------| 
 
Guitar 2 (Play verse same as guitar 1 but add the thing at the end...) 
e|--------------------------------------------------------------| 
B|--------------------------------------------------------------| 
G|------------------------------------------------------12-11-9-| 
D|--------------------------------------------------------------| 
A|------------------------------------------------------10-9--7-| 
E|--------------------------------------------------------------| 
 
Chorus:x2 
 
Guitar 1 
e|-----------------------------------------------| 
B|-----------------------------------------------| 
G|--7--------------------------------------------| 
D|--7-----8----9----7---5------------------------| 
A|--5-----8----9----7---5------------------------| 
E|--------6----7----5---3------------------------| 
Guitar 2 
e|-----------------------------------------------| 
B|-----------------------------------------------| 
G|--7-------------------7--12-11--9--7---14--12--| 
D|--7-----8----9----7----------------------------| 
A|--5-----8----9----7---5--10-9---7--5---12--10--| 
E|--------6----7----5----------------------------| 
 
Outro Verse: 
(1 Guitar only) 
e|--------------------------------------------------------------------- 
B|--------------------------------------------------------------------- 
G|--------------------------------------------------------------------- 
D|--7-7-7-xxx-9-9-9-xxx-5-5-5-xxx-5-5-5-xxx---------------------------- 
A|--7-7-7-xxx-9-9-9-xxx-5-5-5-xxx-5-5-5-xxx---------------------------- 
E|--5-5-5-xxx-7-7-7-xxx-3-3-3-xxx-3-3-3-xxx---------------------------- 
 
e|----------------------------------------------------------| 
B|----------------------------------------------------------| 
G|----------------------------------------------------------| 
D|--7-7-7-xxx-9-9-9-xxx-5m-5m-5m-7m-7m-7m-5m-5m-5m-7m-7m-7m-| 
A|--7-7-7-xxx-9-9-9-xxx-5m-5m-5m-7m-7m-7m-5m-5m-5m-7m-7m-7m-| 
E|--5-5-5-xxx-7-7-7-xxx-3m-3m-3m-5m-5m-5m-3m-3m-3m-5m-5m-5m-| 
 
Outro Riff: 
 
Guitar 1 
e|------| 
B|------|   Repeat a bunch of times 
G|--76-| 
D|--76-| 
A|--54-| 
E|------| 
 
Guitar 2 
e|-----------------------------------------------------------| 
B|-----------------------------------------------------------| 
G|--7---------9----11--12--1511/14--1211/15--15------------| 
D|------------------------------------------------slide down-| 
A|--5---------7----9---10--139-/12--109-/13--13------------| 
E|-----------------------------------------------------------| 
 
  Guitar 1: A B G D 
 
 
 
_______________________________________________________ 
Contribuição: Fabricio Luciano Gonçalves([email protected]) 
share this page

See Also: