E-Chords
The Ark

This Sad Bouquet(Tabs)

The Ark

e|------------0-----3-2-3-3---|-----------0------3-2-------| 
B|-----3----------3-----------|-----3----------3-----------| 
G|---0------0-----------------|---0-----0------------------| 
D|--------------0-------------|--------------0-------------| 
A|-2------3-------------------|-2-----3--------------------| 
E|----------------------------|----------------------------| 

e|-7---7---7---7---7---7---7---7--|--------------------0-3-| 
B|--------------------------------|------------0-0---0-----| 
G|---0---0---0---0-0-0---0---0---0|-0-0-0-0-0-0-0-0--------| 
D|--------------------------------|-----------------2------| 
A|--------------------------------|------------------------| 
E|--------------------------------|------------------------| 

e|-------2--3-2-0-------------0------3-2-----3-2------| 
B|-----3----------0-3---3----------3-------3----------| 
G|---2----------------0-----0-------------------------| 
D|-0-----------------------------0-------0------------| 
A|------------------2-----3---------------------------| 
E|----------------------------------------------------|  

roll up this ad to continue

share this page

See Also: