Testemunhas de JeovŠ

97 - Em Frente, Ministros Do Reino!(Tabs)

Testemunhas de JeovŠ

roll up this ad to continue

	        
E|-----------------------------------------| 
B|-----------------------------------------| 
G|-------------------2---2-4--2------------| 
D|---0----0-2--0-2-4------------4-0--4-2---| 
A|-0----0----------------------------------| 
E|-----------------------------------------| 



E|-----------------------------------------| 
B|-------------------------2---------------| 
G|-----------------0-4---4----4-2----0-----| 
D|---2----2-4--2-4----------------2----4---| 
A|-2----2----------------------------------| 
E|-----------------------------------------| 



E|-------------------------------------------| 
B|---3---------------------------------------| 
G|-2----2-0----0-2-4-------2--0--------------| 
D|----------4--------4---4------4-2--4-0-2---| 
A|-------------------------------------------| 
E|-------------------------------------------| 



E|-------------------------------------------| 
B|-------------------------2-----------------| 
G|-------------------2---4----4-0------------| 
D|---0----0-2--0-2-4--------------2--0---0---| 
A|-0----0------------------------------4-----| 
E|-------------------------------------------| 


Refr„o: 


E|------------------------------------------| 
B|-----3---2--------------------------------| 
G|-2----------4--2-0-------------0-2--------| 
D|-------------------4-2-0--2--4-----4-2----| 
A|------------------------------------------| 
E|------------------------------------------| 



E|------------------------------------------| 
B|------------3--2--------------------------| 
G|-----0---2-------4-2-0----4--2-0----------| 
D|-4---------------------4---------4-2-0----| 
A|------------------------------------------| 
E|------------------------------------------|
	        

See Also: