E-Chords
Testeagles

Wise Up(Tabs)

Testeagles

Key: D
Dropped D tuning (DADGBE)  
 
Intro: 
E:------------------- 
B:------------------- 
G:---4-----3--------- 
D:---4-----3--------- 
A:-0-2-4-3-1-3-2-1-0- 
D:-0---4-3---3-2-1-0- 
then this bit 2 times: 
 
p.m.--------------------------------------------------------------| 
E:----------------------------------------------------------------- 
B:----------------------------------------------------------------- 
G:----------------------------------------------------------------- 
D:----------------------------------------------------------------- 
A:-0-0-0-0-0-0-0-0-0-0-3-0-5-0-6-0-0-0-0-0-0-0-0-0-0-0-3-0-5-0-1-0- 
D:-0-0-0-0-0-0-0-0-0-0-3-0-5-0-6-0-0-0-0-0-0-0-0-0-0-0-3-0-5-0-1-0- 
 
and this 2 times: (2nd time the last 2 notes aren't palm-muted 
p.m.----------------------------------------------------------------| 
E:------------------------------------------------------------------- 
B:------------------------------------------------------------------- 
G:------------------------------------------------------------------- 
D:------------------------------------------------------------------- 
A:-00-0-0-0-0-0-0-0-0-0-3-0-5-0-6-0-00-0-0-0-0-0-0-0-0-0-3-0-5-0-1-0- 
D:-00-0-0-0-0-0-0-0-0-0-3-0-5-0-6-0-00-0-0-0-0-0-0-0-0-0-3-0-5-0-1-0- 
 
and this 2 times: 
E:--------------------------------------------------------- 
B:--------------------------------------------------------- 
G:--------------------------------------------------------- 
D:--------------------------------------------------------- 
A:---0---0--0-0-00-3-0-5-0-6-0---0---0--0-0-00-3-0-5-0-1-0- 
D:---0---0--0-0-00-3-0-5-0-6-0---0---0--0-0-00-3-0-5-0-1-0- 
 
then this: 
p.m.------------------|		    p.m.|     
E:-----------------------------------------  
B:-----------------------------------------  
G:-----------------------------------------  
D:-----------------------------------------  
A:-0-0-0-0-0-0-0-0-0-0-3-0-5-0-1-0-0-0-/5^^ 
D:-0-0-0-0-0-0-0-0-0-0-3-0-5-0-1-0-0-0----- 
 
p.m.---------|		  p.m.| 
E:----------------------------------- 
B:----------------------------------- 
G:----------------------------------- 
D:----------------------------------- 
A:-0-0-0-0-0-00-3-0-5-0-1-0-0-0-/5^^- 
D:-0-0-0-0-0-00-3-0-5-0-1-0-0-0------ 
 
p.m.-----------|		   p.m.|	p.m.---------| 
E:-------------------------------------------------------- 
B:-------------------------------------------------------- 
G:-------------------------------------------------------- 
D:-------------------------------------------------------- 
A:-0-0-0-0-0-00-3-0-5-0-6-0-0-0-/5^^-0-0-0-0-0-00-3-0-5-0- 
D:-0-0-0-0-0-00-3-0-5-0-6-0-0-0------0-0-0-0-0-00-3-0-5-0- 
 
verse 1: 4 times 
		    p.m.------------| 
E:------------------------------- 
B:------------------------------- 
G:-4-----3----------------------- 
D:-4-----3----------------------- 
A:-2-4-3-1-3-2-1-0-0-00-0-0-0000- 
D:---4-3---3-2-1-0-0-00-0-0-0000- 
 
then:p.m.------------| 
E:----------------- 
B:----------------- 
G:-4-----3--------- 
D:-4-----3--------- 
A:-2-4-3-1-3-2-1-0- 
D:---4-3---3-2-1-0- 
 
Fill 1: 7 times 
E:----------------------------- 
B:----------------------------- 
G:----------------------------- 
D:----------------------------- 
A:--0-0--0-0--0-0--3-3-3-3-6-0- 
D:--0-0--0-0--0-0--3-3-3-3-6-0- 
 
Then: 
E:-------------------- 
B:-------------------- 
G:-------------------- 
D:-------------------- 
A:-0-0--0-0--0-0--1-1- 
D:-0-0--0-0--0-0--1-1- 
 
This bits got some *** weird note in it but I did my best: 3 times 
E:---------------------------- 
B:---------------------------- 
G:-----2-----2------2---3---3- 
D:-0-0---0-0----0-0---1---3--- 
A:---------------------------- 
D:---------------------------- 
 
Then the 4th time 
E:---------------------------- 
B:---------------------------- 
G:-----2-----2------2---3----- 
D:-0-0---0-0----0-0-----1----- 
A:---------------------------- 
D:---------------------------- 
 
This Bit: 3 Times 
    p.m.------------------| p.m.-|        
E:--------------------------------- 
B:--------------------------------- 
G:--------------------------------- 
D:--------------------------------- 
A:-0-0-0-0-0-0-0-0-0-0-0-0-1-1-1-1- 
D:-0-0-0-0-0-0-0-0-0-0-0-0-1-1-1-1- 
 
Then:    p.m.------------------|  
E:--------------------------- 
B:--------------------------- 
G:--------------------------- 
D:--------------------------- 
A:-0-0-0-0-0-0-0-0-0-0-0-0-1- 
D:-0-0-0-0-0-0-0-0-0-0-0-0-1- 
 
2nd pre-verse bit 
p.m.--------------------------------------------------------------------| 
E:----------------------------------------------------------------------- 
B:----------------------------------------------------------------------- 
G:----------------------------------------------------------------------- 
D:----------------------------------------------------------------------- 
A:-0-0-00-0-0-0-0-0-0-0-0-0-3-0-5-0-6-0-00-0-0-0-0-0-0-0-0-0-3-0-5-0-1-0- 
D:-0-0-00-0-0-0-0-0-0-0-0-0-3-0-5-0-6-0-00-0-0-0-0-0-0-0-0-0-3-0-5-0-1-0- 
 
p.m.------------------------------------------------------------| 
E:------------------------------------------------------------------- 
B:------------------------------------------------------------------- 
G:------------------------------------------------------------------- 
D:------------------------------------------------------------------- 
A:-00-0-0-0-0-0-0-0-0-0-3-0-5-0-6-0-00-0-0-0-0-0-0-0-0-0-3-0-5-0-1-0- 
D:-00-0-0-0-0-0-0-0-0-0-3-0-5-0-6-0-00-0-0-0-0-0-0-0-0-0-3-0-5-0-1-0- 
 
Then this bit: 2 times 
E:--------------------------------------------------------- 
B:--------------------------------------------------------- 
G:--------------------------------------------------------- 
D:--------------------------------------------------------- 
A:---0---0--0-0-00-3-0-5-0-6-0---0---0--0-0-00-3-0-5-0-1-0- 
D:---0---0--0-0-00-3-0-5-0-6-0---0---0--0-0-00-3-0-5-0-1-0- 
 
then this: 
p.m.------------------|		    p.m.|     
E:-----------------------------------------  
B:-----------------------------------------  
G:-----------------------------------------  
D:-----------------------------------------  
A:-0-0-0-0-0-0-0-0-0-0-3-0-5-0-1-0-0-0-/5^^ 
D:-0-0-0-0-0-0-0-0-0-0-3-0-5-0-1-0-0-0----- 
 
p.m.---------|		  p.m.| 
E:----------------------------------- 
B:----------------------------------- 
G:----------------------------------- 
D:----------------------------------- 
A:-0-0-0-0-0-00-3-0-5-0-1-0-0-0-/5^^- 
D:-0-0-0-0-0-00-3-0-5-0-1-0-0-0------ 
 
p.m.-----------|		   p.m.|	p.m.---------| 
E:-------------------------------------------------------- 
B:-------------------------------------------------------- 
G:-------------------------------------------------------- 
D:-------------------------------------------------------- 
A:-0-0-0-0-0-00-3-0-5-0-6-0-0-0-/5^^-0-0-0-0-0-00-3-0-5-0- 
D:-0-0-0-0-0-00-3-0-5-0-6-0-0-0------0-0-0-0-0-00-3-0-5-0- 
 
verse 2: 4 times 
      p.m.------------| 
E:------------------------------- 
B:------------------------------- 
G:-4-----3----------------------- 
D:-4-----3----------------------- 
A:-2-4-3-1-3-2-1-0-0-00-0-0-0000- 
D:---4-3---3-2-1-0-0-00-0-0-0000- 
 
Ending riff: 
p.m.----------| 
E:----------------- 
B:----------------- 
G:-4-----3--------- 
D:-4-----3--------- 
A:-2-4-3-1-3-2-1-0- 
D:---4-3---3-2-1-0- 
 

roll up this ad to continue

share this page

See Also: