E-Chords
Testeagles

Underdog(Tabs)

Testeagles

Key: D
Dropped D tuning 
 
e:------------------------------------- 
B:------------------------------------- 
G:------------------------------------- 
D:----3--3--3-------------3---3---13--- 
A:----3--3--3-------------3---3---13--- 
D:----3--3--3-------------3---3---13--- 
 
e:------------------------------------- 
B:------------------------------------- 
G:------------------------------------- 
D:----3--3--3-------------3---3---13--- 
A:----3--3--3-------------3---3---13--- 
D:----3--3--3-------------3---3---13--- 
				 					 
e:------------------------------------- 
B:------------------------------------- 
G:------------------------------------- 
D:-----3--3--3--4--0--3--0--4--0------- 
A:-----3--3--3--4--0--3--0--4--0------- 
D:-----3--3--3--4--0--3--0--4--0-------				   
FIG 2 
e:------------------------------------- 
B:------------------------------------- 
G:------------------------------------- 
D:------------------------------------- 
A:----3--3--3--4--0-------------------- 
D:----3--3--3--4--0-------------------- 
		     
e:------------------------------------- 
B:------------------------------------- 
G:------------------------------------- 
D:------------------------------------- 
A:----3--3--3--4--0-------------------- 
D:----3--3--3--4--0--------------------       
 
e:------------------------------------- 
B:------------------------------------- 
G:------------------------------------- 
D:---3-3-4-4-4-4-4-4-4-4-4-4----------- 
A:------------------------------------- 
D:------------------------------------- 
				   
e:------------------------------------- 
B:------------------------------------- 
G:------------------------------------- 
D:---3--3--4-----or------10--10--11---- 
A:------------------------8---8---9---- 
D:------------------------------------- 
 

roll up this ad to continue

share this page

See Also: