E-Chords
Testeagles

Turn That Shit Up(Tabs)

Testeagles

Tabbed By Andrew Schultz  ([email protected]) 
 
Tuning: Dropped D 
 
Sick Main Riff!! 
 
e  --------------------------------------------- 
b  ------------4-------------------------------- 
g  --------------------------------------------- 
d  --0-1-0-1-------0-1-0-1-0-------------------- 
a  --0-1-0-1-------0-1-0-1-0-------------------- 
D  --0-1-0-1-------0-1-0-1-0-------------------- 
 
'We Swear From Here On..' 
 
e  --------------------------------------------------- 
b  --------------------------------------------------- 
g  --------------------------------------------------- 
d  ----7---8--------10---10----7---8--------10-------- 
a  --5---6---5-6--8----8-----5---6---5-6--8----------- 
D  ---------------------------------------------8--7-- 
 
Cool Adelaide Band! 

roll up this ad to continue

share this page

See Also: