E-Chords
Testeagles

Stomp(Tabs)

Testeagles

G:------------------------------------ 
D:------------------------------------ 
A:------------------------------------ 
D:--0-0-7-7-7-0-0-6-6-0-7-7-7-0-0-6--- Bass part 
 
Main Riff with heavy distortion. 
PM----------------------------------> 
e:------------------------------------- 
B:------------------------------------- 
G:------------------------------------- 
D:--0-0-7-7-7-0-0-6-6-0-7-7-7-0-0-6---- 
A:--0-0-7-7-7-0-0-6-6-0-7-7-7-0-0-6---- 
D:--0-0-7-7-7-0-0-6-6-0-7-7-7-0-0-6---- 
 
Riff 2 
Distortion 
e:------------------------ 
B:------------------------ 
G:------------------------ 
D:-----0-7-7-7-7-0-0-6---- 
A:-----0-7-7-7-7-0-0-6---- 
D:-----0-7-7-7-7-0-0-6---- 
 
Riff 3PM-----------------> 
e:---------------------------------------------------------------- 
B:---------------------------------------------------------------- 
G:---------------------------------------------------------------- 
D:----7-7-7-7-7-7-7-7-7-7-7-7-7-7-7-7--0-6-6-6-6-6-6-6-6-6-6-6-6-- 
A:----7-7-7-7-7-7-7-7-7-7-7-7-7-7-7-7--0-6-6-6-6-6-6-6-6-6-6-6-6-- 
D:----7-7-7-7-7-7-7-7-7-7-7-7-7-7-7-7--0-6-6-6-6-6-6-6-6-6-6-6-6-- 
 
The song is a combination of these 3 riffs. 
 

roll up this ad to continue

share this page

See Also: