E-Chords
Testeagles

Like No Other(Tabs)

Testeagles

Key: D
Transcribed By: Joel Chong ([email protected]) 
 
Dropped D Tuning. 
 
Intro: 
Some techno crap that ruined the song. 
 
 
Main 
E|----------------------------------| 
B|----------------------------------| 
G|----------------------------------| 
D|--0-3-5-6-0-3-5--0-3-5-6-0-3-0----| x4 
A|--0-3-5-6-0-3-5--0-3-5-6-0-3-0----| 
D|--0-3-5-6-0-3-5--0-3-5-6-0-3-0----| 
 
 
Verse {1:42} 
E|----------------------------------| 
B|----------------------------------| 
G|----------------------------------|     This is only done for the first verse. 
D|--0-3-5-6-0-3-5-------------------| x4 
A|--0-3-5-6-0-3-5-------------------| 
D|--0-3-5-6-0-3-5-------------------| 
 
 
Bridge {2:49} 
E|---------------------------------------------------| 
B|---------------------------------------------------| 
G|---------------------------------------------------| 
D|--0-0-0-1-2-3-0-0-0-1-2-3-0-0-0-1-2-3-3-3-3-2-3-2--| 
A|--0-0-0-1-2-3-0-0-0-1-2-3-0-0-0-1-2-3-3-3-3-2-3-2--| 
D|--0-0-0-1-2-3-0-0-0-1-2-3-0-0-0-1-2-3-3-3-3-2-3-2--| 
 
E|---------------------------------------------------| 
B|---------------------------------------------------| 
G|---------------------------------------------------| 
D|--0-0-0-1-2-3-0-0-0-1-2-3-0-0-0-1-2-3-3-3-3-6-6-6--| 
A|--0-0-0-1-2-3-0-0-0-1-2-3-0-0-0-1-2-3-3-3-3-6-6-6--| 
D|--0-0-0-1-2-3-0-0-0-1-2-3-0-0-0-1-2-3-3-3-3-6-6-6--| 
 
E|---------------------------------------------------| 
B|---------------------------------------------------| 
G|---------------------------------------------------| 
D|--0-0-0-1-2-3-0-0-0-1-2-3-0-0-0-1-2-3-3-3-3-2-3-2--| 
A|--0-0-0-1-2-3-0-0-0-1-2-3-0-0-0-1-2-3-3-3-3-2-3-2--| 
D|--0-0-0-1-2-3-0-0-0-1-2-3-0-0-0-1-2-3-3-3-3-2-3-2--| 
 
E|--------------------------------------------| 
B|--------------------------------------------| 
G|--------------------------------------------| 
D|--0-0-0-1-2-3-0-0-0-1-2-3-0-0-0-1-2-3-3-3---|  
A|--0-0-0-1-2-3-0-0-0-1-2-3-0-0-0-1-2-3-3-3---| 
D|--0-0-0-1-2-3-0-0-0-1-2-3-0-0-0-1-2-3-3-3---| 
 
 
End bit {4:09} 
E|---------------------| 
B|---------------------| 
G|---------------------|      Listen to song for timing. 
D|--0------------------| x8 
A|--0------------------| 
D|--0------------------| 
 
Well that's it, if you have any questions just email me. 
 

roll up this ad to continue

share this page

See Also: