E-Chords
Tersol

Dogma(Tabs)

Tersol

Key: B
 
 INTRO CLEAN 
 
     B          D    E    B            G    A  
e|------------------------------------------------| 
B|------------------------------------------------| 
G|---4----------5----7----4-----------------------| 
D|---4----------5----7----4------------5----7-----| 
A|---2----------7----9----2------------5----7-----| 
E|-------------------------------------3----5-----| 
 
INTRO COM BAIXO (BAIXO RIFF) 
 
     B          D    E    B            G    A  
e|------------------------------------------------| 
B|------------------------------------------------| 
G|---4----------5----7----4-----------------------| 
D|---4----------5----7----4------------5----7-----| 
A|---2----------7----9----2------------5----7-----| 
E|-------------------------------------3----5-----| 
 
INTRO OVERDRIVE (BAIXO RIFF) 
 
     B          D    E    B              G    A     
e|--------------------------------------------------| 
B|--------------------------------------------------| 
G|---4..--------5..--7..--4..-----------------------|  2X 
D|---4..--------5..--7..--4..-----------------------| 
A|---2..--------7..--9..--2..-----------------------| 
E|---------------------------------0--2--3..--5..---| 
 
OVERDRIVE DIRETO 
 
     B          D    E    B            G    A  
e|------------------------------------------------| 
B|------------------------------------------------| 
G|---4----------5----7----4-----------------------|  2X 
D|---4----------5----7----4------------5----7-----| 
A|---2----------7----9----2------------5----7-----| 
E|-------------------------------------3----5-----| 
 
 
 B                    D         E              B 
  Isso acontece todo dia, hora e em qualquer lugar    
            G             A          B 
  Eu vi nos olhos de um minino, uma lágrima a brotar 
 B                  D             E             B 
  No futebol era goleiro, nas festinhas nem pensar 
 B           G         A          B        
  e o seu maior pesadelo era a praia frequentar 
 
INTRO (BAIXO RIFF) 
 
     B          D    E    B            G    A  
e|------------------------------------------------| 
B|------------------------------------------------| 
G|---4----------7----9----4-----------------------| 
D|---4----------7----9----4------------5----7-----| 
A|---2----------5----7----2------------5----7-----| 
E|-------------------------------------3----5-----| 
 
 B                   D             E          B 
  E as pessoas encarnavam com seu jeito de viver    
           G            A          B 
  Com seu andar desengonçado, sua camisa era GG 
 B                  D             E             B 
  Bermuda acima do umbigo e os olinhos a brilhar 
 B           G         A          B        
  A enginuidade do menino refletia no olhar   
 
REFRÃO 
 
     E    G    D    C   E    G    C    D     
e|----------------------------------------| 
B|----------------------------------------| 
G|---9---12-------------9---12------------| 
D|---9---12---12---10---9---12---10---12--| 
A|---7---10---12---10---7---10---10---12--| 
E|------------10----8-------------8---10--| 
 
 E        G               D              C              E 
  Menino gordo não fique mal a aparencia não é fundamental 
          G             C              D              D      A 
  Oque importa é o coração, não coma torta, não coma não...   
 
     B          D    E    B            G    A  
e|------------------------------------------------| 
B|------------------------------------------------| 
G|---4----------5----7----4-----------------------| 
D|---4----------5----7----4------------5----7-----| 
A|---2----------7----9----2------------5----7-----| 
E|-------------------------------------3----5-----| 
 
BASE COM GUITARRA ABAFADA 
 
 B                   D          E       B 
  Depois de um certo tempo o menino cresceu    
                G        A          B 
  Chegou a sua hora e também a sua vez 
 B                  D         E             B 
  Traumas e preconceitos ele nunca esqueceu   
 B      G              A          B        
  Se matou com uma pistola e com ele levou três   
 
REFRÃO SEM VOZ 
 
     E    G    D    C   E    G    C    D   
e|----------------------------------------| 
B|----------------------------------------| 
G|---9---12-------------9---12------------| 
D|---9---12---12---10---9---12---10---12--| 
A|---7---10---12---10---7---10---10---12--| 
E|------------10----8-------------8---10--| 
 
SILÊNCIO 
 
SOLO COM BASE 
 
         B                      D          E               B    G           A 
e|-----------------10~----10-10b12--12-12--9--10-9--10-9------------------------| 
B|-12b10-12----12------------------------------------------12~--12-10-10-12-----| 
G|----------11--------------------------------------------------------------11~-| 
D|------------------------------------------------------------------------------| 
A|------------------------------------------------------------------------------| 
E|------------------------------------------------------------------------------| 
 
         B            D        E            B    G      A 
e|----------------------------------------------------------| 
B|-12b10-12----12--10~---------12-10------------------------| 
G|----------11-----------------------12-11------------------| 
D|------------------------------------------12~--12-12/14---| 
A|----------------------------------------------------------| 
E|----------------------------------------------------------| 
 
RIFF BAIXO + GUITARRA IGUAL 
 
     B                          D            E 
e|--------------------------------------------------|   | 
B|--------------------------------------------------|   | 
G|------------16--14-----14---------16--14----------|   | 
D|--------------------16--------------------16--14--|   |    
A|--12-13-14-----------------12b14------------------|   | 
E|--------------------------------------------------|   | 
                                                        |  2x 
     B                          G            A          | 
e|--------------------------------------------------|   | 
B|--------------------------------------------------|   | 
G|------------16--14-----14---------16--14----------|   | 
D|--------------------16--------------------16--14--|   | 
A|--12-13-14-----------------12b14------------------|   | 
E|--------------------------------------------------|   | 
 
    B 
e|---------| 
B|---------| 
G|---------| 
D|--16...--| 
A|--14...--| 
E|---------| 
 
 
_______________________________________________________ 
Contribuição: Bruno Alves Barata([email protected]) 

roll up this ad to continue

share this page

See Also: