E-Chords
Tercer mundo

Si te fijaras(Tabs)

Tercer mundo

Key: A
Tercer mundo - Si te fijaras 
Tabbed by: Roberto 'guerrero de carton' Ferrin 
 
 
Intro: 
      A      B*             A      Em 
e) |--------------------------------------------------| 
b) |--------------------------------------------------| 
g) |--7-6-x-------------6---7-6-x--8/9-9-9-----7-9----| 
d) |---------9-9-9--7-9---------------------10--------| 
a) |--------------------------------------------------| 
e) |--------------------------------------------------| 
 
     Cadd9            G 
e) |--------------------------------------| 
b) |--------------5/3-3--1-3--1-3--1-3----| 
g) |--5(sustain)--------------------------| 
d) |--------------------------------------| 
a) |--------------------------------------| 
e) |--------------------------------------| 
 
      A      B*             A      Em 
e) |--------------------------------------------------| 
b) |--------------------------------------------------| 
g) |--7-6-x-------------6---7-6-x--8/9-9-9-----7-9----| 
d) |---------9-9-9--7-9---------------------10--------| 
a) |--------------------------------------------------| 
e) |--------------------------------------------------| 
 
      Cadd9                   G 
e) |----------------3-3--5-3--7/3-3----| 
b) |-----------------------------------| 
g) |--5(sustain)--5--------------------| 
d) |-----------------------------------| 
a) |-----------------------------------| 
e) |-----------------------------------| 
 
Verse: 
F                    C 
Si te fijaras en las sombras que ha hecho 
     G                 D 
tu cuerpo en mi cama verias amor 
F                  C                  D 
Si despertaras una noche tranquila verias que solo fue amor 
 
F                C          D 
Si no me empujas dejaras de lastimar de herir, hablar 
F                    C 
Si te fijaras en las sombras que ha hecho 
   D                     E 
el tiempo en nosotros verias amor 
 
 
Se repite el intro 
 
 
Chorus: 
C5                    F5 
Ahora es cuando  te quiero solo para mi 
         C5 
porque quiero gritarte al oido 
    F5 
que me muero sin ti­, que me muero sin ti 
  F5 G5 G5 G5      F5 G5   G5 G5 
y no,         no quiero quedarme sin.....  
 
      F       C        G       D 
e) |------5-------3----3-----------5----| 
b) |-----6-------5------3---------7-----| 
g) |----5-------5--------4-------7------| 
d) |---7-------5----------5-----7-------| 
a) |--8-------3------------5---5--------| 
e) |------------------------------------| 
 .....tí 
      F       C        D         D 
e) |------1-------3--------5-----------------| 
b) |-----1-------5--------7----------5---5---| 
g) |----2-------5--------7-------------7-----| 
d) |---3-------5--------7----------7---------| 
a) |--3-------3--------5---------5-----------| 
e) |-----------------------------------------| 
 
F                C          D 
Si no me empujas dejaras de lastimar de herir, hablar 
F                    C 
Si te fijaras en las sombras que ha hecho 
   D                     E 
el tiempo en nosotros veri­as amor 
 
 
Chorus: 
C5                    F5 
Ahora es cuando  te quiero solo para mi 
         C5 
porque quiero gritarte al oido 
    F5 
que me muero sin ti, que me muero sin ti 
  F5 G5 G5 G5      F5 G5   G5 G5 
y no,         no quiero quedarme sin.... 
 
      F      F5          G5 
e) |--5-----------------------7-8-10/3--| 
b) |--6------8/10----10--8--8-----------| 
g) |--5-----------10--------------------| 
d) |--7---------------------------------| 
a) |--8---------------------------------| 
e) |------------------------------------| 
   ...ti                no quiero quedarme sin ti 
 
Outro: 
Se toca el intro varias veces (fade out) 
 
Acordes usados: 
      A  B*  Em  Cadd9  G  F  C  D  E  C5  F5  G5 
e) |--0--2---0-----3----3--1--0--2--0---x---x---x---| 
b) |--2--2---0-----3----3--1--1--3--0---x---x---x---| 
g) |--2--4---0-----0----0--2--0--2--1---5---x---x---| 
d) |--2--4---2-----2----0--3--2--0--2---5---2---5---| 
a) |--0--2---2-----3----2--3--3--0--2---3---2---5---| 
e) |--0--2---0-----x----3--1--0--x--0---x---1---3---| 
 
Comentarios, correcciones, Bienvenido :) 
[email protected] 
www.guerrerosdecarton.9f.com 

roll up this ad to continue

share this page

See Also: