E-Chords
Tera Melos

Until Lufthansa(Tabs)

Tera Melos

roll up this ad to continue

Tabbed by:JaaaayDeeee 
E-mail:[email protected] 

found some of the parts difficult to work out cause of the effects used... 
i'm not 100% with the chords in the Chorus 
  
Tuning: Standard 

intro/Chorus 

e|----------------------------0-----------5-7-9-10-9----------5----------| 
B|----------------------------0---3/10-----------------------------------| 
G|-6-7-6-6-9-9--------------6-9-6------7--6-7-9-11-9----------6----------| 
D|-7-7---------7-7-9-9------7-9-7------7--------------11-9-7-------------| 
A|-7-5-----------------9-9--7-7-7----------------------------------------| 
E|-5------------------------5---5----------------------------------------| 

e|----------------------------0-----------5-7-9-10-9----------5----------| 
B|----------------------------0---3/10-----------------------------------| 
G|-6-7-6-6-9-9--------------6-9-6------7--6-7-9-11-9----------6----------| 
D|-7-7---------7-7-9-9------7-9-7------7--------------11-9-7-------------| 
A|-7-5-----------------9-9--7-7-7----------------------------------------| 
E|-5------------------------5---5----------------------------------------| 

verse 

e|--------------------------| 
B|------------------0-7-7-0-| 
G|-6--6--6-6--6-6-6-0-7-7-0-| 
D|-7--7--7-7--7-7-7-0-7-7-0-| 
A|-7--7--7-7--7-7-7---5-5---|x7 
E|-5--5--5-5--5-5-5---------| 

e|--------------------------| 
B|------------------0-------| 
G|-6--6--6-6--6-6-6-0-12-12-| 
D|-7--7--7-7--7-7-7-0-12-12-| 
A|-7--7--7-7--7-7-7---10-10-| 
E|-5--5--5-5--5-5-5---------| 

e|-------------| 
B|---------7---| 
G|-6h9p6h9---6-|x4 
D|-------------| 
A|-------------| 
E|-------------| 

e|---------------| 
B|---------------| 
G|-----------7---|x4 
D|-7h11p7h11---7-| 
A|---------------| 
E|---------------| 

e|---------------| 
B|---------------| 
G|---------7-----|x4 
D|-6h9p6h9---6---| 
A|---------------| 
E|---------------| 

e|-------------| 
B|---------7---| 
G|-6h9p6h9---6-|x4 
D|-------------| 
A|-------------| 
E|-------------| 

e|---------------| 
B|---------------| 
G|-----------7---|x4 
D|-7h11p7h11---7-| 
A|---------------| 
E|---------------| 

e|---------------| 
B|---------------| 
G|---------7-----|x4 
D|-6h9p6h9---6---| 
A|---------------| 
E|---------------| 

Pre-Chorus i think...  

e|-----------------------------------------------------------------------| 
B|-----------------------------------------------------------------------| 
G|-7-7-7-----------------------------------------------------------------| 
D|-------9-9-9-----------------------------------------------------------| 
A|-------------11-11-11-7-7-7----------7--7--7-7--7--7-7------7----------| 
E|----------------------------7-7-7-4--0--0--0-0--0--0-0--0-0-0-0-0------| 

Chorus 

e|----------------------------0-----------5-7-9-10-9----------5----------| 
B|----------------------------0---3/10-----------------------------------| 
G|-6-7-6-6-9-9--------------6-9-6------7--6-7-9-11-9----------6----------| 
D|-7-7---------7-7-9-9------7-9-7------7--------------11-9-7-------------| 
A|-7-5-----------------9-9--7-7-7----------------------------------------| 
E|-5------------------------5---5----------------------------------------| 

e|----------------------------0-----------5-7-9-10-9----------5-0--------| 
B|----------------------------0---3/10-----------------------------------| 
G|-6-7-6-6-9-9--------------6-9-6------7--6-7-9-11-9----------6----------| 
D|-7-7---------7-7-9-9------7-9-7------7--------------11-9-7-------------| 
A|-7-5-----------------9-9--7-7-7----------------------------------------| 
E|-5------------------------5---5----------------------------------------| 

verse 

e|--------------------------| 
B|------------------0-7-7-0-| 
G|-6--6--6-6--6-6-6-0-7-7-0-| 
D|-7--7--7-7--7-7-7-0-7-7-0-| 
A|-7--7--7-7--7-7-7---5-5---|x9 
E|-5--5--5-5--5-5-5---------| 

e|--------------------------9\------------------------------------------| 
B|-----------10-9-7-------------7-7-------------------------------------| 
G|-6----6-6--------9------------7-7-------------------------------------| 
D|-7----7-7----------11-9-7-----7-7-------------------------------------| 
A|-7----7-7---------------------5-5-------------------------------------| 
E|-5-xx-5-5-------------------------------------------------------------| 

e|--------------------------| 
B|------------------0-7-7-0-| 
G|-6--6--6-6--6-6-6-0-7-7-0-| 
D|-7--7--7-7--7-7-7-0-7-7-0-| 
A|-7--7--7-7--7-7-7---5-5---| 
E|-5--5--5-5--5-5-5---------| 

e|------------------------------------| 
B|-----------10-9-7-------------------| 
G|-6----6-6--------9------------12-12-| 
D|-7----7-7----------11-9-7-----12-12-| 
A|-7----7-7---------------------10-10-| 
E|-5-xx-5-5---------------------------| 

e|-------------| 
B|---------7---| 
G|-6h9p6h9---6-|x4 
D|-------------| 
A|-------------| 
E|-------------| 

e|---------------| 
B|---------------| 
G|-----------7---|x4 
D|-7h11p7h11---7-| 
A|---------------| 
E|---------------| 

e|---------------| 
B|---------------| 
G|---------7-----|x4 
D|-6h9p6h9---6---| 
A|---------------| 
E|---------------| 

e|-------------| 
B|---------7---| 
G|-6h9p6h9---6-|x4 
D|-------------| 
A|-------------| 
E|-------------| 

e|---------------| 
B|---------------| 
G|-----------7---|x4 
D|-7h11p7h11---7-| 
A|---------------| 
E|---------------| 

e|---------------| 
B|---------------| 
G|---------7-----|x4 
D|-6h9p6h9---6---| 
A|---------------| 
E|---------------| 

e|-----------------------------------------------------------------------| 
B|-----------------------------------------------------------------------| 
G|-7-7-7-----------------------------------------------------------------| 
D|-------9-9-9-----------------------------------------------------------| 
A|-------------11-11-11-7-7-7----------7--7--7-7--7--7-7------7----------| 
E|----------------------------7-7-7-4--0--0--0-0--0--0-0--0-0-0-0-0------| 

Chorus 

e|----------------------------0-----------5-7-9-10-9----------5----------| 
B|----------------------------0---3/10-----------------------------------| 
G|-6-7-6-6-9-9--------------6-9-6------7--6-7-9-11-9----------6----------| 
D|-7-7---------7-7-9-9------7-9-7------7--------------11-9-7-------------| 
A|-7-5-----------------9-9--7-7-7----------------------------------------| 
E|-5------------------------5---5----------------------------------------| 

e|----------------------------0-----------5-7-9-10-9---------------------| 
B|----------------------------0---3/10-----------------------------------| 
G|-6-7-6-6-9-9--------------6-9-6------7--6-7-9-11-9---------11-12-------| 
D|-7-7---------7-7-9-9------7-9-7------7--------------11-9-7-11-12-------| 
A|-7-5-----------------9-9--7-7-7----------------------------9--10-------| 
E|-5------------------------5---5----------------------------------------| 

this just keep playing till the end 

e|-------------| 
B|---------7---| 
G|-6h9p6h9---6-| 
D|-------------| 
A|-------------| 
E|-------------| 
  
with this playing over it 

e|-------------| 
B|-------------| 
G|-------------| 
D|-----------0-| 
A|-----0---4---| 
E|-2-0---2-----| 
share this page

See Also: