E-Chords
Temple of the dog

Hungerstrike(Tabs)

Temple of the dog

roll up this ad to continue

Key: D
 
Dropped D tuning (D A D G B E) 
 
 
 
MAIN RIFF 
 
  I don't mind stealing bread 
  From the mouths of decadence 
  But I can't feed on the powerless 
  When my cup's already overfilled 
  But it's on the table 
  The fire is cooking 
  And their farming babies 
  While the slaves are working 
  The blood is on the table 
  And their mouths are choking 
  But I'm growing hungry 
 
   G                 Cadd9             G                (organ: Gsus4) 
                  
  ------------------|-----------------|-----------------|----------------- 
  ------0---3-----3-|-----0---3-----3-|-----0---3-----3-|-----0---3-----3- 
  ----0---0---0-----|---0---0---0-----|---0---0---0-----|---0---0---0----- 
  --0-----------0---|-2-----------2---|-0-----------0---|-0-----------0--- 
  ------------------|-----------------|-----------------|----------------- 
  ------------------|-----------------|-----------------|----------------- 
 
  This part is later on doubled until the fourth measure, which is: 
 
  ------------------ 
  --3/5--3--0--3~~-- 
  ------------------ 
  ------------------ 
  ------------------ 
  ------------------ 
 
 
BRIDGE 
 
    D5 E5   D5 E5  
  ----------------------------------- 
  ----------------------------------- 
  ----------------------------------- 
  --0--2----0--2-----4b5r4b5r4~~~---- 
  --0--2----0--2--------------------- 
  --0--2----0--2--------------------- 
 
 
 
From: Peter Fabok  
 
I would like to correct your tabulature in the song: 
'hunger strike'from 'temple of dog'. 
There is this verse and I think,it's false: 
   D5 E5 
E------------ 
B------------- 
G------------- 
D--0-2---------- 
A--0-2---------- 
E--0-2---------- 
 
Try to play it in this verse: 
E------------- 
B------------- 
G------------- 
D--0-2---------- 
A--0-2---------- 
E--0-0---------- 
 
-it means only small change in E5      
 
 
~From: [email protected] (P.VD BERG) 
 
HUNGER STRIKE - TEMPLE OF THE DOG 
LYRICS BY CHRIS CORNELL (SOUNDGARDEN) 
 
I don't mind stealing bread 
From the mouths of decadence 
But I can't feed on the powerless 
When my cup's already overfilled 
But it's on the table 
The fire is cooking 
And their farming babies 
While the slaves are working 
The blood is on the table 
And their mouths are choking 
But I'm growing hungry......... 
 
Guitartab : 
 
E ----------------------------------------------------- 
A ----------------------------------------------------- 
D --0-----------0-----1-----------1-------------------- 
G ----0---0---0---0-----0---0---0---0------------------ 
B ------0---1-------------0---1------------------------ 
e ----------------------------------------------------- 
 
Enjoy, create, post. 
 
 
 
_______________________________________________________ 
Contribuição: Alker([email protected]) 
share this page

See Also: