E-Chords
Teenage Head

Take It(Tabs)

Teenage Head

roll up this ad to continue

*note* 
Listen to the song to get the rhythms 

Intro: 
e|-------------------------------------------------------------------------------------------------------| 
B|-------------------------------------------------------------------------------------------------------| 
G|-------------------------------------------------------------------------------------------------------| 
D|--5-5---5-5---5-5--------------2-2---2-2---2-2--------------5-5---5-5---5-5--------------2---2-------2-| 
A|--5-5---5-5---5-5--------------2-2---2-2---2-2--------------5-5---5-5---5-5--------------2---2-------2-| 
E|--3-3---3-3---3-5---5-7-5-3-2--0-0---0-0---0-0---5-7-5-3-2--3-3---3-3---3-3---5-7-5-3-2--0---0-------0-| 

Bridge: 
 |-------------------------------------------------------------------------------------------------------| 
 |-------------------------------------------------------------------------------------------------------| 
 |-------------------------------------------------------------------------------------------------------| 
 |--9----------9-7-5-7---------------------9----------9-7-5-7--------------------------------------------| 
 |---------------------7-----5--------------------------------7-----5------------------------------------| 
 |-----------------------5-7----0-------------------------------5-7----0---------------------------------| 
  
 Verse: 
 |-------------------------------------------------------------------------------------------------------| 
 |-------------------------------------------------------------------------------------------------------| 
 |-------------------------------------------------------------------------------------------------------| 
 |--5-5---5-5---5-5--------------2-2---2-2---2-2--------------5-5---5-5---5-5--------------2---2-------2-| X 2 
 |--5-5---5-5---5-5--------------2-2---2-2---2-2--------------5-5---5-5---5-5--------------2---2-------2-| 
 |--3-3---3-3---3-5---5-7-5-3-2--0-0---0-0---0-0---5-7-5-3-2--3-3---3-3---3-3---5-7-5-3-2--0---0-------0-| 

Chorus: 
 |-------------------------------------------------------------------------------------------------------| 
 |-------------------------------------------------------------------------------------------------------| 
 |-------------------------------------------------------------------------------------------------------| 
 |--5-5---5-5---5-5------5------2-2---2-2---2-2------5-5---5-5---5-5------5------2-2---2-2---2-2---------| 
 |--5-5---5-5---5-5------5------2-2---2-2---2-2------5-5---5-5---5-5------5------2-2---2-2---2-2---------| 
 |--3-3---3-3---3-3------3------0-0---0-0---0-0------3-3---3-3---3-3------3------0-0---0-0---0-0---------| 

Order of Song: 
1)  Intro 
2)  Bridge 
3)  Verse 
4)  Chorus 
5)  Repeat from bridge - Chorus 2 more times 
6)  Repeat Chorus til end 
share this page

See Also: