E-Chords
Team America

America, Fuck Yeah(Tabs)

Team America

Intro 
e|--0------2--| 
B|--1------3--| 
G|--0------2--| 
D|--2------0--| 
A|--3---------| 
E|------------|x1 

Verse Part 1 
e|------------------------------------------------------| 
B|------------------------------------------------------| 
G|------------------------------------------------------| 
D|--9--------------7-9---------7--7-7-7-7-7-7------5----| 
A|--7--------------5-7---------5--5-5-5-5-5-5-5------7--| 
E|--0--0-0-0-0-0-0---0-0-0-0-0-------------------7------|x2 

Verse Part 2 
e|---------------------------------------------------------------| 
B|---------------------------------------------------------------| 
G|---------------------------------------------------------------| 
D|--5--5-5-5-5-5-5--7--7-7-7-7-7-7--5--5-5-5-5-5-5--7--9--10-12--| 
A|--5--5-5-5-5-5-5--7--7-7-7-7-7-7--5--5-5-5-5-5-5--7--9--10-12--| 
E|--3--3-3-3-3-3-3--5--5-5-5-5-5-5--3--3-3-3-3-3-3--5--7--8--10--|x1 

Verse Part 1 
e|------------------------------------------------------| 
B|------------------------------------------------------| 
G|------------------------------------------------------| 
D|--9--------------7-9---------7--7-7-7-7-7-7------5----| 
A|--7--------------5-7---------5--5-5-5-5-5-5-5------7--| 
E|--0--0-0-0-0-0-0---0-0-0-0-0-------------------7------|x2 

Verse Part 2 
e|---------------------------------------------------------------| 
B|---------------------------------------------------------------| 
G|---------------------------------------------------------------| 
D|--5--5-5-5-5-5-5--7--7-7-7-7-7-7--5--5-5-5-5-5-5--7--9--10-12--| 
A|--5--5-5-5-5-5-5--7--7-7-7-7-7-7--5--5-5-5-5-5-5--7--9--10-12--| 
E|--3--3-3-3-3-3-3--5--5-5-5-5-5-5--3--3-3-3-3-3-3--5--7--8--10--|x1 

Verse Part 1 
e|------------------------------------------------------| 
B|------------------------------------------------------| 
G|------------------------------------------------------| 
D|--9--------------7-9---------7--7-7-7-7-7-7------5----| 
A|--7--------------5-7---------5--5-5-5-5-5-5-5------7--| 
E|--0--0-0-0-0-0-0---0-0-0-0-0-------------------7------|x2 

Verse Part 2 
e|---------------------------------------------------------------| 
B|---------------------------------------------------------------| 
G|---------------------------------------------------------------| 
D|--5--5-5-5-5-5-5--7--7-7-7-7-7-7--5--5-5-5-5-5-5--7--9--10-12--| 
A|--5--5-5-5-5-5-5--7--7-7-7-7-7-7--5--5-5-5-5-5-5--7--9--10-12--| 
E|--3--3-3-3-3-3-3--5--5-5-5-5-5-5--3--3-3-3-3-3-3--5--7--8--10--|x1 

Bridge 
e|---------------------------------------------------------| 
B|------------------------------0-8p0-7p0-3-5p0------------| 
G|----------------------------------------------2p0--------| 
D|--9--------------7-9------------------------------5p0-2--| 
A|--7--------------5-7----------------------------------2--| 
E|--0--0-0-0-0-0-0---0---0-0-0--------------------------0--|x1 

Verse Part 1 
e|------------------------------------------------------| 
B|------------------------------------------------------| 
G|------------------------------------------------------| 
D|--9--------------7-9---------7--7-7-7-7-7-7------5----| 
A|--7--------------5-7---------5--5-5-5-5-5-5-5------7--| 
E|--0--0-0-0-0-0-0---0-0-0-0-0-------------------7------|x6 

Verse Part 2 
e|---------------------------------------------------------------| 
B|---------------------------------------------------------------| 
G|---------------------------------------------------------------| 
D|--5--5-5-5-5-5-5--7--7-7-7-7-7-7--5--5-5-5-5-5-5--7--9--10-12--| 
A|--5--5-5-5-5-5-5--7--7-7-7-7-7-7--5--5-5-5-5-5-5--7--9--10-12--| 
E|--3--3-3-3-3-3-3--5--5-5-5-5-5-5--3--3-3-3-3-3-3--5--7--8--10--|x1 

Outro 
e|-------------------------------------------------------------------------------------------------| 
B|------------------------------0-8p0-7p0-3-5p0----------------------------------------------------| 
G|----------------------------------------------2p0------------------------------------------------| 
D|--9--------------7-9------------------------------5p0-2------222222222222--2-2--2---2----2----9--| 
A|--7--------------5-7----------------------------------2------222222222222--2-2--2---2----2----7--| 
E|--0--0-0-0-0-0-0---0---0-0-0--------------------------0------000000000000--0-0--0---0----0----0--|x1 



************************************ 

| /   slide up 
| \   slide down 
| h   hammer-on 
| p   pull-off 
| ~   vibrato 
| +   harmonic 
| x   Mute note 
| b   Bend 
| pb  Pre-bend 
| br  Bend release 
| pbr Pre-bend release 
| brb Bend release bend 

************************************ 

roll up this ad to continue

share this page

See Also: