E-Chords
Tame Impala

Runway Houses City Clouds (solo)(Tabs)

Tame Impala

roll up this ad to continue

Key: C
e-------------------------------------------------------| 
B-------------------------------------------------------| 
G-8\7-------------------------10-12b14r12-10------------| 
D-----8h10----------10--10h12----------------12b13r12-8-| 
A----------8--10h12-------------------------------------| 
E-------------------------------------------------------| 

e--------------------------------| 
B--------------------------------| 
G------7-7-----------------------| 
D-8-10-----10-8---------8----5-8-| 
A---------------10-8-10---6------| 
E--------------------------------| 

And then every second repeat has a slight variation towards the end: 

e-------------------------------------------------------| 
B-------------------------------------------------------| 
G-8\7-------------------------10-12b14r12-10------------| 
D-----8h10----------10--10h12----------------12b13r12-8-| 
A----------8--10h12-------------------------------------| 
E-------------------------------------------------------| 

e------------------------------| 
B------------------------------| 
G------7-7---------------------| 
D-8-10-----10-8------------5-8-| 
A---------------12-10-8-6------| 
E------------------------------|  
share this page

See Also: