E-Chords
Tame Impala

Milky Way Spiral Gets A New Arm(Tabs)

Tame Impala

roll up this ad to continue

                  Tame Impala - Milky Way Spiral Gets a New Arm 
                           from their unreleased demos 

Guitar 1 is in the left speaker. 
Guitar 2 is in the right speaker. 

Intro: 
Guitar 1: 
e|----------------------------------------------------------------------------------| 
B|----------------------------------------------------------------------------------| 
G|-12pb15----r12~~/15-16b18--r16----------------------------------------------------| 
D|---------------------------------15~~~-10h12-12-----------10--10--10-12p10--------| 
A|----------------------------------------------------10h12------------------12-----| 
E|------------------------------------------------10----------------------------10--| 

Guitar 1: 
e|----------------------------------------------------------------------| 
B|----------------------------------------------------------------------| 
G|--------------------------------------------12-b14-12-12b14-12~~~~~~~~| 
D|---------------12-----------------------------------------------------| 
A|---------10/12---------12--12--10-10-12-10----------------------------| 
E|-10--10------------10--10--10--10-10-10-10----------------------------| 


A second guitar comes in: 
Guitar 1: 
e|--------------------------------5---------------------------------| 
B|---------------------------5--5-7--b8------7----------------------| 
G|-7-\5--5-2-4/9~~-2h4/9~~~~-5--5------------9b11--r9--7------------| 
D|------------------------------------------------------------------| 
A|------------------------------------------------------------------| 
E|------------------------------------------------------------------| 

Guitar 2: 
e|------------------------------------------------------------------------------------| 
B|------------------------------------------------7.-7b9------------------------------| 
G|-5/7-----5/7-5.--5--7----4/9--12/14-9-12-----5.--------------7----------------------| 
D|-----5/7---------------------------------5-7----------------7---0-h7p0h7p0h7p0------| 
A|-------------------------------------------------------------------------------0----| 
E|------------------------------------------------------------------------------------| 


The song sort of stops and then starts again: 
Guitar 1 starts playing rhythm: 
e|---------------------------------------| 
B|---------------------------------------| 
G|-9--9--9-9-9--9-9--9-9--9-9-9-9-9-7----| x2 
D|-9--9--9-9-9--9-9--9-9--9-9-9-9-9-7----| 
A|-7--7--7-7-7--7-7--7-7--7-7-7-7-7-5----| 
E|---------------------------------------| 

Guitar 2: 
e|-------------------------------------------------------------------------------------| 
B|-12\---------------------------------------------------------------------------------| 
G|---------------------------------------------------------------12-14b16-16-16-16r14~~| 
D|----14--14--------12-14-14b15r14-12---12-14b15r14-1212---12-14-----------------------| 
A|------------12h14------------------14-----------------14-----------------------------| 
E|-------------------------------------------------------------------------------------| 


Singing starts: 
'We fall slowly' 
Guitar 1 stops playing after this bit: 
e|---------------------| 
B|---------------------| 
G|-9--9--9-9-9--9-9----| 
D|-9--9--9-9-9--9-9----| 
A|-7--7--7-7-7--7-7----| 
E|---------------------| 

Guitar 2: 
e|-------------------------------------------------------------------------------------| 
B|--------12-14-14b16--16r14-----------------------------------/12-/12-/12--12-12-12---| 
G|-14~-14----------------------------------------------12-14\--/13-/13-/13--14-12-13---| 
D|---------------------------------12-14--14--14-14-14---------------------------------| 
A|---------------------------12-14-----------------------------------------------------| 
E|-------------------------------------------------------------------------------------| 


Singing stops for a bit: 
Guitar 2: 
e|-------------------------------| 
B|-15------15----15------12------| 
G|-17b19---17b19-17b19---14b16---| 
D|-------------------------------| 
A|-------------------------------| 
E|-------------------------------| 


Singing starts again: 
'We fall slowly' 
Guitar 2: 
e|---------------------------------------------------------------------------| 
B|-12.-12--12\10-------------------------------------------------------------| 
G|-14.-14--14\12---12/14~~~-------12-14b16-r14-p12--14b16r14p12-----14p12~~~-| 
D|--------------------------12h14-------------------------------14.----------| 
A|---------------------------------------------------------------------------| 
E|---------------------------------------------------------------------------| 


Singing stops again: 
Guitar 2: 
e|-------------------------------------------------------------| 
B|---------------------------------------------12---------12+--| 
G|---------------------------------------------14b16-----------| 
D|-12/14--12---------------------------------------------------| 
A|-----------14-12-h14-----------------------------------------| 
E|---------------------12~~~~-12~~~~\-0------------------------| 


Outro: 
Singing starts again: 
'We fall slowly oh' 
Guitar 2: 
e|-----------------------------------------| 
B|-12-12-----12------10-/12----------------| 
G|-------13-----13---12-/13----------------| 
D|-----------------------------------------| 
A|-----------------------------------------| 
E|-----------------------------------------| 

End with weird animal noise. 


************************************ 

| /   slide up 
| \   slide down 
| h   hammer-on 
| p   pull-off 
| ~   vibrato 
| +   harmonic 
| x   Mute note 
| .   staccato 
| b   Bend 
| pb  Pre-bend 
| br  Bend release 
| pbr Pre-bend release 
| brb Bend release bend 

************************************ 
share this page

See Also: