E-Chords
Tame Impala

Endors Toi(Tabs)

Tame Impala

roll up this ad to continue

Intro chords 
d|5---5---5---5-5--5---8--8---8--8---8---1---1---1---1-1--1---6--6---6--6---6| 
A|5---5---5---5-5--5---8--8---8--8---8---1---1---1---1-1--1---6--6---6--6---6| 
F|6---6---6---6-6--6---9--9---9--9---9---2---2---2---2-2--2---7--7---7--7---7| 
C|7---7---7---7-7--7---10-10--10-10--10--3---3---3---3-3--3---8--8---8--8---8| 
G|7---7---7---7-7--7---10-10--10-10--10--3---3---3---3-3--3---8--8---8--8---8| 
D|5---5---5---5-5--5---8--8---8--8---8---1---1---1---1-1--1---6--6---6--6---6| 

d|3---3---3---3-3--3---8--8---8--8---8---1---1---1---1-1--1---6--6---6--6---6| 
A|3---3---3---3-3--3---8--8---8--8---8---1---1---1---1-1--1---6--6---6--6---6| 
F|4---4---4---4-4--4---9--9---9--9---9---2---2---2---2-2--2---7--7---7--7---7| 
C|5---5---5---5-5--5---10-10--10-10--10--3---3---3---3-3--3---8--8---8--8---8| 
G|5---5---5---5-5--5---10-10--10-10--10--3---3---3---3-3--3---8--8---8--8---8| 
D|3---3---3---3-3--3---8--8---8--8---8---1---1---1---1-1--1---6--6---6--6---6| 

Played twice, then ends on: 

d|-8~---| 
A|-8~---| 
F|-9~---| 
C|-10~--| 
G|-10~--| 
D|-8~---| 

d|1---1---1---1-1--1---6--6---6--6---6---3---3---3---3-3--3---8--8---8--8---8| 
A|1---1---1---1-1--1---6--6---6--6---6---3---3---3---3-3--3---8--8---8--8---8| 
F|2---2---2---2-2--2---7--7---7--7---7---4---4---4---4-4--4---9--9---9--9---9| 
C|3---3---3---3-3--3---8--8---8--8---8---5---5---5---5-5--5---10-10--10-10-10| 
G|3---3---3---3-3--3---8--8---8--8---8---5---5---5---5-5--5---10-10--10-10-10| 
D|1---1---1---1-1--1---6--6---6--6---6---3---3---3---3-3--3---8--8---8--8---8| 

d|1---1---1---1-1--1---6--6---6--6---6-| 
A|1---1---1---1-1--1---6--6---6--6---6-| 
F|2---2---2---2-2--2---7--7---7--7---7-| 
C|3---3---3---3-3--3---8--8---8--8---8-| 
G|3---3---3---3-3--3---8--8---8--8---8-| 
D|1---1---1---1-1--1---6--6---6--6---6-| 

And repeat the first two bars twice. Then, play the same chords progression 
as in the first two bars again, but hit every chords only once. Play that a 
couple of times. Then, the strumming pattern comes back.  
Finally, we come to the point where he plays that really fuzzy riff. It 
appears to be full of power chords and has some slides in it. There is some 
room for improv in it which I'll try to incorporate here. 

d|---------------------------------------------------------------------------| 
A|---------------------------------------------------------------------------| 
F|---------14--14------12--12-------10-10---10-12----15----------------------| 
C|-7--7----14--14------12--12-------10-10---10-12----15-----8--8------5--5---| 
G|-7--7----12--12---x--10--10-------8--8----8--10----13-----8--8------5--5---| 
D|-5--5--0--------------------------------------------------6--6------3--3---| 

d|-----------------------------------------------------------| 
A|-----------------------------------------------------------| 
F|----12-15-17-----------------------------------------------| 
C|-10-12-15-17----10-10-------3--3--7-8-7-8----8--8----------| 
G|-10-10-13-15----10-10-------3--3--7-8-7-8----8--8----------| 
D|-8--------------8--8--------1--1--5-6-5-6----6--6---\\-----| 

d|---------------------------------------------------------------------------| 
A|---------------------------------------------------------------------------| 
F|---------14--14------12--12-------10-10---10-12----15----------------------| 
C|-7--7----14--14------12--12-------10-10---10-12----15-----8--8------5--5---| 
G|-7--7----12--12---x--10--10-------8--8----8--10----13-----8--8------5--5---| 
D|-5--5--0--------------------------------------------------6--6------3--3---| 

d|-------------------------------------------------------------------| 
A|----------------------------10-------------------------------------| 
F|----12-15-17----------------12b14~---12b14r12-10~\----12b15--9-----| 
C|-10-12-15-17----10-10----------------------------------------------| 
G|-10-10-13-15----10-10----------------------------------------------| 
D|-8--------------8--8-----------------------------------------------| 
 
share this page

See Also: