E-Chords
Talles Espaciales

Cambian(Tabs)

Talles Espaciales

roll up this ad to continue

Key: F#
ARREGLO BASE 1 
eb|-------------------------------- |------------ 
Bb|--3---3---3---3---3---3---3----- |-3---3--3--- 
F#|---2---2---2---2---2---2---2---- |--2---2--2-- 
C#|----0---0---0---0---0---0---0--- |---0------0- 
G#|-------------------------------- |------------ 
Eb|-------------------------------- |------------ 

ARREGLO BASE 2 
eb|---------------------------------------- 
Bb|--3---3---2---2---0---0---2---2--------- 
F#|---2---2---2---2---0---0---2---2-------- 
C#|----0---0---0---0---0---0---0---0------- 
G#|---------------------------------------- 
Eb|---------------------------------------- 

ARREGLO ESTRIBILLO 
eb|--4-------4-----4----------------------- 
Bb|----6-4-6---6-----6-4-6---6-4-4-6-4----- 
F#|------------------------6--------------- 
C#|---------------------------------------- 
G#|---------------------------------------- 
Eb|---------------------------------------- 

ARREGLO ESTRIBILLO 
eb|--4-------4-----4----------------------- 
Bb|----6-4-6---6-----6-4-6---6-4-4-6-4----- 
F#|------------------------6-----------6--- 
C#|---------------------------------------- 
G#|---------------------------------------- 
Eb|---------------------------------------- 


SOBRE ARREGLO BASE 1 
El mundo está cambiando como el sol 
Como la música, las drogas y como vos 
Nada es como lo veías vos ayer 
Parece que todo ahora está al revés 
Los niños juegan con globos llenos de aire 
Mientras los grandes cambian cosas en el parque 
Ellos saben lo que tienen que hacer 
Se les terminaron los salad days 


SOBRE ARREGLO ESTRIBILLO 
Cambian, las cosas cambian 
Cambian, las cosas cambian 
El tiempo es inquieto, no tengas miedo porque 
Cambian, las cosas cambian 


Todo nuestro fuego sigue creciendo 
La gente gira y gira en su resentimiento 
Por no poder hacer lo que ellos quieren 
No deja de vivir como simples rehenes 


SOBRE ARREGLO BASE 2 
De la rutina que los priva de los sueños 
Que pierden aunque no dejen de ser sus dueños 
En la imaginación que todo domina 
Ellos se sienten como el tonto de la colina 


SOBRE ARREGLO ESTRIBILLO 
Cambian, las cosas cambian 
Cambian, las cosas cambian 
El tiempo es inquieto, no tengas miedo porque 
Cambian, las cosas cambian 
Cambian, las cosas cambian 
Cambian, las cosas cambian 
El tiempo es inquieto, no tengas miedo porque 
Cambian, las cosas cambian 
share this page

See Also: