E-Chords
Takeharu Ishimoto

The World Ends With You - Transformation(Tabs)

Takeharu Ishimoto

------- 
Intro: 
------- 

Guitar 1: 

P.M.---------------| 
E|---------------------------------------------| 
B|---------------------------------------------| 
G|---------------------------------------------| 
D|-----------------------3---------------------| 
A|--5-5-----5--5--5------1---------------------| 
E|--3-3-----3--3--3----------------------------| 4 times 

---------------------------- 
Transition/Filler: (2 times) 
---------------------------- 

Guitar 1: 

E|--------------------------------------| 
B|--------------------------------------| 
G|--------------------------------------| 
D|-5-5-5-5-5-5-5-5-5-5-5-5-5-5-5-5------| 
A|-3-3-3-3-3-3-3-3-3-3-3-3-3-3-3-3------| 
E|--------------------------------------| 

E|--------------------------------------| 
B|--------------------------------------| 
G|--------------------------------------| 
D|-3-3-3-3-3-3-3-3-3-3-3-3-3-3-3-3------| 
A|-1-1-1-1-1-1-1-1-1-1-1-1-1-1-1-1------| 
E|--------------------------------------| 

Guitar 2: 

E|--------------------------------------------| 
B|--------------------------------------------| 
G|-5--5---3--3---5--5-------------------------| 
D|------------------------5--5---5-5----------| 
A|--------------------------------------------| 
E|--------------------------------------------| 4 times 

------ 
Verse: 
------ 

Guitar 1: 

P.M.--------------------------------------------| 
E|----------------------------------------------| 
B|----------------------------------------------| 
G|----------------------------------------------| 
D|-5-5-5------5-5-5------5-5-5------5-5-5-------| 
A|-3-3-3------3-3-3------3-3-3------3-3-3-------| 
E|----------------------------------------------| 

P.M.-----------------------------------------------| 
E|----------------------------------------------------------------------| 
B|----------------------------------------------------------------------| 
G|----------------------------------------------------------------------| 
D|-5-5-5--3-3-3--5-5-5--3-3-3---5-5-5--3-3-3--5-5-5-----b17-------------| 
A|-3-3-3--1-1-1--3-3-3--1-1-1---3-3-3--1-1-1--3-3-3-----b15-------------| 
E|----------------------------------------------------------------------| 

P.M.--------------------------------------------------------------------| 
E|----------------------------------------------------------------------| 
B|----------------------------------------------------------------------| 
G|----------------------------------------------------------------------| 
D|-5-5-5--3-3-3--5-5-5--3-3-3---5-5-5--3-3-3--5-5-5--3-3-3--------------| 
A|-3-3-3--1-1-1--3-3-3--1-1-1---3-3-3--1-1-1--3-3-3--1-1-1--------------| 
E|----------------------------------------------------------------------| 2 Times 

------------------ 
Chorus: (4 times) 
------------------ 

Guitar 1: 

E|--------------------------------------| 
B|--------------------------------------| 
G|--------------------------------------| 
D|-5-5-5-5-5-5-5-5-5-5-5-5-5-5-5-5------| 
A|-3-3-3-3-3-3-3-3-3-3-3-3-3-3-3-3------| 
E|--------------------------------------| 

E|--------------------------------------| 
B|--------------------------------------| 
G|--------------------------------------| 
D|-3-3-3-3-3-3-3-3-3-3-3-3-3-3-3-3------| 
A|-1-1-1-1-1-1-1-1-1-1-1-1-1-1-1-1------| 
E|--------------------------------------| 

---------------------- 
Intro as a Transition: 
---------------------- 

Guitar 1: 

P.M.---------------| 
E|---------------------------------------------| 
B|---------------------------------------------| 
G|---------------------------------------------| 
D|-----------------------3---------------------| 
A|--5-5-----5--5--5------1---------------------| 
E|--3-3-----3--3--3----------------------------| 4 times (let it ring last time) 

---------------------------- 
Transition/Filler: (2 times) 
---------------------------- 

Guitar 1: 

E|--------------------------------------| 
B|--------------------------------------| 
G|--------------------------------------| 
D|-5-5-5-5-5-5-5-5-5-5-5-5-5-5-5-5------| 
A|-3-3-3-3-3-3-3-3-3-3-3-3-3-3-3-3------| 
E|--------------------------------------| 

E|--------------------------------------| 
B|--------------------------------------| 
G|--------------------------------------| 
D|-3-3-3-3-3-3-3-3-3-3-3-3-3-3-3-3------| 
A|-1-1-1-1-1-1-1-1-1-1-1-1-1-1-1-1------| 
E|--------------------------------------| 

Guitar 2: 

E|--------------------------------------------| 
B|--------------------------------------------| 
G|-5--5---3--3---5--5-------------------------| 
D|------------------------5--5---5-5----------| 
A|--------------------------------------------| 
E|--------------------------------------------| 4 times 

-------- 
verse 2: 
-------- 

Guitar 1: 

P.M.--------------------------------------------| 
E|----------------------------------------------| 
B|----------------------------------------------| 
G|----------------------------------------------| 
D|-5-5-5------5-5-5------5-5-5------5-5-5-------| 
A|-3-3-3------3-3-3------3-3-3------3-3-3-------| 
E|----------------------------------------------| 

P.M.---------------------------------------------------------------------| 
E|-----------------------------------------------------------------------| 
B|-----------------------------------------------------------------------| 
G|-----------------------------------------------------------------------| 
D|-5-5-5--3-3-3--5-5-5--3-3-3---5-5-5--3-3-3--5-5-5-----6--6--6----------| 
A|-3-3-3--1-1-1--3-3-3--1-1-1---3-3-3--1-1-1--3-3-3-----4--4--4----------| 
E|-----------------------------------------------------------------------| 

P.M.--------------------------------------------------------------------| 
E|----------------------------------------------------------------------| 
B|----------------------------------------------------------------------| 
G|----------------------------------------------------------------------| 
D|-5-5-5--3-3-3--5-5-5--3-3-3---5-5-5--3-3-3--5-5-5--3-3-3--------------| 
A|-3-3-3--1-1-1--3-3-3--1-1-1---3-3-3--1-1-1--3-3-3--1-1-1--------------| 
E|----------------------------------------------------------------------| 2 Times 

------------------ 
Chorus: (4 times) 
------------------ 

Guitar 1: 

E|--------------------------------------| 
B|--------------------------------------| 
G|--------------------------------------| 
D|-5-5-5-5-5-5-5-5-5-5-5-5-5-5-5-5------| 
A|-3-3-3-3-3-3-3-3-3-3-3-3-3-3-3-3------| 
E|--------------------------------------| 

E|--------------------------------------| 
B|--------------------------------------| 
G|--------------------------------------| 
D|-3-3-3-3-3-3-3-3-3-3-3-3-3-3-3-3------| 
A|-1-1-1-1-1-1-1-1-1-1-1-1-1-1-1-1------| 
E|--------------------------------------| 

---------------------------------- 
Bridge (I think it's called that): 
---------------------------------- 

Guitar 1: 

E|--------------------------------------------------| 
B|--------------------------------------------------| 
G|--------------------------------------------------| 
D|--------------------------------------------------| 
A|--------------------------------------------------| 
E|-6--8-8---6--8-8---6--8-8---6--8--3--6-6-6--------| 

E|------------------------------------------------------| 
B|------------------------------------------------------| 
G|------------------------------------------------------| 
D|------------------------------------------------------| 
A|------------------------------------------------------| 
E|-8---6--8-8---6--8-8---6--8-8---6--8--3--6-6-6-6------| 3 Times 

------------------ 
Chorus: (4 times) 
------------------ 

Guitar 1: 

E|--------------------------------------| 
B|--------------------------------------| 
G|--------------------------------------| 
D|-5-5-5-5-5-5-5-5-5-5-5-5-5-5-5-5------| 
A|-3-3-3-3-3-3-3-3-3-3-3-3-3-3-3-3------| 
E|--------------------------------------| 

E|--------------------------------------| 
B|--------------------------------------| 
G|--------------------------------------| 
D|-3-3-3-3-3-3-3-3-3-3-3-3-3-3-3-3------| 
A|-1-1-1-1-1-1-1-1-1-1-1-1-1-1-1-1------| 
E|--------------------------------------| 

---------------------------- 
Transition/Filler: (2 times) 
---------------------------- 

Guitar 1: 

E|--------------------------------------| 
B|--------------------------------------| 
G|--------------------------------------| 
D|-5-5-5-5-5-5-5-5-5-5-5-5-5-5-5-5------| 
A|-3-3-3-3-3-3-3-3-3-3-3-3-3-3-3-3------| 
E|--------------------------------------| 

E|--------------------------------------| 
B|--------------------------------------| 
G|--------------------------------------| 
D|-3-3-3-3-3-3-3-3-3-3-3-3-3-3-3-3------| 
A|-1-1-1-1-1-1-1-1-1-1-1-1-1-1-1-1------| 
E|--------------------------------------| 

Guitar 2: 

E|--------------------------------------------| 
B|--------------------------------------------| 
G|-5--5---3--3---5--5-------------------------| 
D|------------------------5--5---5-5----------| 
A|--------------------------------------------| 
E|--------------------------------------------| 4 times 

------- 
Outro: 
------- 

Guitar 2: 

E|-------------------------------------------------| 
B|-------------------------------------------------| 
G|-5--5---3--3---5--5------------------------------| 
D|------------------------3---3--3--1------5-------| 
A|-----------------------------------------3-------| 
E|-------------------------------------------------| (Let the chord ring out) 


************************************ 

P.M.--|  palm mute 
| /   slide up 
| \   slide down 
| h   hammer-on 
| p   pull-off 
| ~   vibrato 
| +   harmonic 
| x   Mute note 
| b   Bend 
| pb  Pre-bend 
| br  Bend release 
| pbr Pre-bend release 
| brb Bend release bend 

************************************ 

roll up this ad to continue

share this page

See Also: