E-Chords
Takeharu Ishimoto

The World Ends With You - Hybrid(Tabs)

Takeharu Ishimoto

starting around 00:18 

E|------------------------------------------------------------------ 
B|------------------------------------------------------------------ 
G|------------------------------------------------------------------ 
D|------------------------------------------------------------------ 
A|---7---7---5---7---7-7---7---10-10-10----------------------------- 
E|------------------------------------------------------------------ 4 times 

at 00:30 

E|---------------------------- 
B|---------------------------- 
G|---------------------------- 
D|---7/9-9-9-9-9-9------------ 
A|---5/7-7-7-7-7-7------------ 
E|----------------------------4 times 

E|-------------- 
B|-------------- 
G|-------------- 
D|---/12---12--- 
A|---/10---10--- 
E|-------------- 

E|---------------------------- 
B|---------------------------- 
G|---------------------------- 
D|---7/9-9-9-9-9-9------------ 
A|---5/7-7-7-7-7-7------------ 
E|----------------------------3 times 

E|---------------------- 
B|---------------------- 
G|---------------------- 
D|---7/9-9-9------------ 
A|---5/7-7-7------------ 
E|---------------------- 

00:43 

E|---------------------------- 
B|---------------------------- 
G|---------------------------- 
D|---7/9-9-9-9-9-9------------ 
A|---5/7-7-7-7-7-7------------ 
E|----------------------------4 times 

E|-------------- 
B|-------------- 
G|-------------- 
D|---/12---12--- 
A|---/10---10--- 
E|-------------- 

E|---------------------------- 
B|---------------------------- 
G|---------------------------- 
D|---7/9-9-9-9-9-9------------ 
A|---5/7-7-7-7-7-7------------ 
E|----------------------------4 times 

E|------------------------ 
B|------------------------ 
G|------------------------ 
D|---/12---12------------- 
A|---/10---10-------7~/19- 
E|------------------------ 

1:02 

E|------------------------------------------------------------------ 
B|------------------------------------------------------------------ 
G|------------------------------------------------------------------ 
D|------------------------------------------------------------------ 
A|---7---7---5---7---7-7---7---10-10-10----------------------------- 
E|------------------------------------------------------------------ 

E|------------------------------------------------------------------ 
B|------------------------------------------------------------------ 
G|------------------------------------------------------------------ 
D|------------------------------------------------------------------ 
A|---7---7---5---7---7-----x-x-------------------------------------- 
E|-------------------------x-x-------------------------------------- 

E|------------------------------------------------------------------ 
B|------------------------------------------------------------------ 
G|------------------------------------------------------------------ 
D|------------------------------------------------------------------ 
A|---7---7---5---7---7-7---7---10-10-10----------------------------- 
E|------------------------------------------------------------------ 

E|------------------------------------------------------------------ 
B|------------------------------------------------------------------ 
G|------------------------------------------------------------------ 
D|---------------------x-x-x---x-x---------------------------------- 
A|---7---7---5---7-----x-x-x---x-x---------------------------------- 
E|------------------------------------------------------------------ 

1:17 

E|------------------------------------------------------------------ 
B|------------------------------------------------------------------ 
G|------------------------------------------------------------------ 
D|------------------------------------------------------------------ 
A|---7---7---5---7---7-7---7---10-10-10----------------------------- 
E|------------------------------------------------------------------ 4 times 

E|---------------------------- 
B|---------------------------- 
G|---------------------------- 
D|---7/9-9-9-9-9-9------------ 
A|---5/7-7-7-7-7-7------------ 
E|----------------------------4 times 

E|-------------- 
B|-------------- 
G|-------------- 
D|---/12---12--- 
A|---/10---10--- 
E|-------------- 

E|---------------------------- 
B|---------------------------- 
G|---------------------------- 
D|---7/9-9-9-9-9-9------------ 
A|---5/7-7-7-7-7-7------------ 
E|----------------------------4 times 

E|-------------- 
B|-------------- 
G|-------------- 
D|---/12---12--- 
A|---/10---10--- 
E|-------------- 

E|---------------------------- 
B|---------------------------- 
G|---------------------------- 
D|---7/9-9-9-9-9-9------------ 
A|---5/7-7-7-7-7-7------------ 
E|----------------------------4 times 

E|-------------- 
B|-------------- 
G|-------------- 
D|---/12---12--- 
A|---/10---10--- 
E|-------------- 

E|---------------------------- 
B|---------------------------- 
G|---------------------------- 
D|---7/9-9-9-9-9-9------------ 
A|---5/7-7-7-7-7-7------------ 
E|----------------------------4 times 

E|-------------- 
B|-------------- 
G|-------------- 
D|---/12---12--- 
A|---/10---10--- 
E|-------------- 

Pause 

2:32 

E|---------------------------- 
B|---------------------------- 
G|---------------------------- 
D|---7/9-9-9-9-9-9------------ 
A|---5/7-7-7-7-7-7------------ 
E|----------------------------4 times 

E|-------------- 
B|-------------- 
G|-------------- 
D|---/12---12--- 
A|---/10---10--- 
E|-------------- 

E|---------------------------- 
B|---------------------------- 
G|---------------------------- 
D|---7/9-9-9-9-9-9------------ 
A|---5/7-7-7-7-7-7------------ 
E|----------------------------3 times 

E|----------------------- 
B|----------------------- 
G|----------------------- 
D|---7/9-9-9------------- 
A|---5/7-7-7------------- 
E|----------------------- 

E|---------------------------- 
B|---------------------------- 
G|---------------------------- 
D|---7/9-9-9-9-9-9------------ 
A|---5/7-7-7-7-7-7------------ 
E|----------------------------4 times 

E|-------------- 
B|-------------- 
G|-------------- 
D|---/12---12--- 
A|---/10---10--- 
E|-------------- 

E|---------------------------- 
B|---------------------------- 
G|---------------------------- 
D|---7/9-9-9-9-9-9------------ 
A|---5/7-7-7-7-7-7------------ 
E|---------------------------- 4 times 

E|-------------- 
B|-------------- 
G|-------------- 
D|---/12---12--- 
A|---/10---10--- 
E|-------------- 

E|---------------------------- 
B|---------------------------- 
G|---------------------------- 
D|---7/9-9-9-9-9-9------------ 
A|---5/7-7-7-7-7-7------------ 
E|---------------------------- 

E|---------------------- 
B|---------------------- 
G|---------------------- 
D|---7/9-9-9------------ 
A|---5/7-7-7------------ 
E|---------------------- 

************************************ 

| /   slide up 
| \   slide down 
| h   hammer-on 
| p   pull-off 
| ~   vibrato 
| +   harmonic 
| x   Mute note 
| b   Bend 
| pb  Pre-bend 
| br  Bend release 
| pbr Pre-bend release 
| brb Bend release bend 

************************************ 

roll up this ad to continue

share this page

See Also: