E-Chords
Taize

Bless The Lord(Tabs)

Taize

roll up this ad to continue

Taizé - Bless The Lord 

E|------------------------|------------|----------------------|-------| 
B|------------------------|------------|----------------------|-------| 
G|------------------------|------------|---7----7----5--------|-------| 
D|---7----------5---------|------------|------------------5---|---7---| 
A|---------8----------5---|---5----8---|----------------------|-------| 
E|------------------------|------------|----------------------|-------| 

   Bless  the Lord,   my    soul, and    bless God's ho  -ly     name 

E|------------------------|------------|----------------------|-------|:| X 3 
B|------------------------|------------|----------------------|-------|:| 
G|------------------------|------------|----------------------|-------|:| 
D|--7-----------5---------|------------|----------------------|-------|:| 
A|---------8----------5---|---5----5---|---8----8----7--------|--5----|:| 
E|------------------------|------------|-------------------8--|-------|:| 

   Bless  the  Lord,  my     soul, who   leaads me   in  -to    life
 
share this page

See Also: