E-Chords
Syd Matters

Life Is Strange Main Theme(Tabs)

Syd Matters

Key: D
D A D A) 

'refrão' 
(D Bm F#m A D 
 Bm A) 

(D A D A) 

'refrão' 
(D Bm F#m A D 
 Bm F#m A D G Em A) 

(D A D A) 

Só repetir tudo! 

Violão 2: 

E|--------------------------------------------------| 
B|-------6-----6-----6-----6-----6-----6-----6-----6| 
G|-----5-----5-----5-----5-----5-----5-----5-----5--|   
D|--------------------------------------------------| 
A|--------------------------------------------------| 
E|--------------------------------------------------| 

Quando o violão 1 tocar a nota A, o violão 2 fará: 
E|--------------------------------------------------| 
B|----------5---------------------------------------| 
G|-----5--------------------------------------------| 
D|--------------------------------------------------| 
A|--------------------------------------------------| 
E|--------------------------------------------------| 

Na parte do refrão, o violão 2 fará o seguinte: 
E|--------------------------------------------------| 
B|--------10--6--5----5h6---------------------------| 
G|------------------5-------------------------------| 
D|--------------------------------------------------| 
A|--------------------------------------------------| 
E|--------------------------------------------------| 

E|--------------------------------------------------| 
B|--------10--6--5----5h6---------------------------| 
G|--------------------------------------------------| 
D|--------------------------------------------------| 
A|--------------------------------------------------| 
E|--------------------------------------------------| 

roll up this ad to continue

share this page

See Also: