E-Chords
Susperia

Mind Apart(Tabs)

Susperia

roll up this ad to continue

Key: D
INTRO 

   Em                              Em 
D|-------------------------------------------------------------------| 
A|---------0-----0-----0-----0-------------0-----0-----0-----0-------| 
F|-------0---0-----0-----0-----0---------0---0-----0-----0-----0-----| 
C|-----2-------2-----2-----2-----2-----2-------3-----3-----3-----3---| 
G|---2-------------------------------2-------------------------------| 
D|-0-------------------------------0---------------------------------| 

   Em                               Am   
|------------------------------------------------------| 
|----------0-----0-----0-----0--------------1----------| 
|--------0---0-----0-----0-----0----------2---2--------| 
|------2-------2-----2-----2-----2------2-------2------|SAME AS IN THE VERSE 
|----2--------------------------------0-----------0----| 
|--0--------------------------------0------------------| 


...taking the best of me              _____   ________________ 
                                       1     2                
|------------------------------------------------------------0-----| 
|-----------------------------------------------------------(5~)---| 
|-------------------------------------------------------0----------| 
|-2--2-2-2--2-2-2--2-2-2--2-2-2--2-2-2--5-3-5-------0h2---2--------| 
|-2--2-2-2--2-2-2--2-2-2--2-2-2--2-2-2--5-3-5---0h2----------------| 
|-0--0-0-0--0-0-0--0-0-0--0-0-0--0-0-0--3-1-3----------------------| 


...stronger it burns 

|-------------|---------------------| 
|-x3 times--|---------------------| 
|-------------|---------------------| 
|-2--2-2--2~--|--2--2-2-2--3--5--3--| 
|-2--2-2------|--2--2-2-2--3--5--3--| 
|-0--0-0------|--0--0-0-0--1--3--1--| 

...the things you do 

|------------------------------------| 
|-----------4-3-2--------------------| 
|-----1-4p1------------------4-2-0---| 
|----------------------2-5p2---------| 
|------------------------------------| 
|-4-4--------------0-0---------------| 


Everything just repeats a few times so you will figure out) 
Please comment and enjoy!) 

************************************ 

| /   slide up 
| \   slide down 
| h   hammer-on 
| p   pull-off 
| ~   vibrato 
| +   harmonic 
| x   Mute note 
| b   Bend 
| pb  Pre-bend 
| br  Bend release 
| pbr Pre-bend release 
| brb Bend release bend 

************************************ 
share this page

See Also: