E-Chords
Survivors

Hight on you(Tabs)

Survivors

Key: Em
Synth Intro: 
|-7--5---------7--5--------7--5--------7--5----------| 
|-8--7--7--8---8--7--7-----8--7--7--8--8--7--8-8-----| 
|-------7--9---------7-----------7--9--------7-7-----| 
|----------------------------------------------------| 
|----------------------------------------------------| 
|----------------------------------------------------| 
 
|-7--5---------7--5----| 
|-8--7--7--8---8--7--7-| 
|-------7--9---------7-| 
|----------------------| 
|----------------------| 
|----------------------| 
 
Power Chord Riff: 
|----------------------------------------| 
|----------------------------------------| 
|-9-----5----7-7----12--------12-12~-----| 
|-9-----5----7-7----12--------12-12~-----| 
|-7-----3----5-5----10--------10-10~-----| 
|----------------------------------------| 
Riff: 
|--------------------------| 
|----5-------7-------------| 
|------5-------7-----------| 
|-/7-----5s7------7~\------| 
|--------------------------| 
|--------------------------| 
 
Verse: 
|-----------------------| 
|-----------------------| 
|-----------------------| 
|----5-5-5-5-5-5-5-5----| 
|----5-5-5-5-5-5-5-5----| 
|----3-3-3-3-3-3-3-3----| (x4) 
 PM|-----------------| 
 
|-----------------------| 
|-----------------------| 
|-----------------------| 
|----5-5-5-5-5-5-5-5----| 
|----5-5-5-5-5-5-5-5----| 
|----3-3-3-3-3-3-3-3----| (x3) 
 PM|-----------------| 
 
|--------------------------| 
|----5-------7-------------| 
|------5-------7-----------| 
|-/7-----5s7------7~\------| 
|--------------------------| 
|--------------------------| 
 
|-----------------------| 
|-----------------------| 
|-----------------------| 
|----5-5-5-5-5-5-5-5----| 
|----5-5-5-5-5-5-5-5----| 
|----3-3-3-3-3-3-3-3----| (x4) 
 PM|-----------------| 
 
|-----------------------| 
|-----------------------| 
|-----------------------| 
|----5-5-5-5-5-5-5-5----| 
|----5-5-5-5-5-5-5-5----| 
|----3-3-3-3-3-3-3-3----| (x3) 
 PM|-----------------| 
 
|--------------------------| 
|----5-------7-------------| 
|------5-------7-----------| 
|-/7-----5s7------7~\------| 
|--------------------------| 
|--------------------------| 
 
Bridge: 
Em   D   G    C   D 
Em   D   G    C   D 
 
Chorus: 
|-7--5---------7--5--------7--5--------7--5----------| 
|-8--7--7--8---8--7--7-----8--7--7--8--8--7--8-8-----| 
|-------7--9---------7-----------7--9--------7-7-----| 
|----------------------------------------------------| 
|----------------------------------------------------| 
|----------------------------------------------------| (x2) 
 
Verse 2: 
{Play Verse} 
 
Bridge: 
Em   D   G    C   D 
Em   D   G    C   D 
 
Chorus: 
|-7--5---------7--5--------7--5--------7--5----------| 
|-8--7--7--8---8--7--7-----8--7--7--8--8--7--8-8-----| 
|-------7--9---------7-----------7--9--------7-7-----| 
|----------------------------------------------------| 
|----------------------------------------------------| 
|----------------------------------------------------| (x2) 
 
|-7--5---------7--5--------7--5--------7--5-------------------------------| 
|-8--7--7--8---8--7--7-----8--7--7--8--8--7-------------------------------| 
|-------7--9---------7-----------7--9-----------5-5-5-5-5-5-5-5-------7---| 
|-----------------------------------------------5-5-5-5-5-5-5-5-------7---| 
|-----------------------------------------------3-3-3-3-3-3-3-3-------5---| 
|-------------------------------------------------------------------------| 
 
Guitar Interlude: 
|----------------------------------------------------------| 
|-------15p13p12-13--12---------------------15--15--15--15-| 
|-----------------------14--12-12~-------------------------| 
|-12~-------------------------------12-12~-----------------| 
|----------------------------------------------------------| 
|----------------------------------------------------------| 
 
Verse 3: 
|-----------------------| 
|-----------------------| 
|-----------------------| 
|----5-5-5-5-5-5-5-5----| 
|----5-5-5-5-5-5-5-5----| 
|----3-3-3-3-3-3-3-3----| (x4) 
 PM|-----------------| 
 
|-----------------------| 
|-----------------------| 
|-----------------------| 
|----5-5-5-5-5-5-5-5----| 
|----5-5-5-5-5-5-5-5----| 
|----3-3-3-3-3-3-3-3----| (x3) 
 PM|-----------------| 
 
|--------------------------| 
|----5-------7-------------| 
|------5-------7-----------| 
|-/7-----5s7------7~\------| 
|--------------------------| 
|--------------------------| 
 
Bridge: 
Em   D   G    C   D 
Em   D   G    C   D 
 
 
Chorus: 
|-7--5---------7--5--------7--5--------7--5----------| 
|-8--7--7--8---8--7--7-----8--7--7--8--8--7--8-8-----| 
|-------7--9---------7-----------7--9--------7-7-----| 
|----------------------------------------------------| 
|----------------------------------------------------| 
|----------------------------------------------------| (x2) 
 
|-7--5---------7--5--------7--5--------7--5-------------------------------| 
|-8--7--7--8---8--7--7-----8--7--7--8--8--7-------------------------------| 
|-------7--9---------7-----------7--9-----------5-5-5-5-5-5-5-5-------7---| 
|-----------------------------------------------5-5-5-5-5-5-5-5-------7---| 
|-----------------------------------------------3-3-3-3-3-3-3-3-------5---| 
|-------------------------------------------------------------------------| 
 
Outro Guitar Interlude: 
|------------------------------------------------------| 
|-------15p13p12-13--12--------------------------------| 
|-----------------------12-14-14b16r--12-12~-----------| 
|-12~-----------------------------------------12-12----| 
|------------------------------------------------------| 
|------------------------------------------------------| 
 
|-----------------------------------------------------| 
|----------------------------------15-use-whammy------| 
|-----------------------------------------------------| 
|-12~-----12s=14-14-14--14s=12-12---------------------| 
|-----------------------------------------------------| 
|-----------------------------------------------------| 
 
Chords: 
Em:   022000 
D:    xx0232 
C:    x32010 
G:    320033 
 
Legend: 
p - pulloff 
s - slide 
b - bend 
r - release 

roll up this ad to continue

share this page

See Also: